Oops, an error
Loading. Please wait.

My Fault Tab

823 views 9 this week
no commentswrite comment
1 2 3 4 5
2 more votes to show rating
add to favorites
launch autoscroll
font size
0
reset
how to read this tab
guitar tuner
Autoscroll
slow
fast
+/-
esc
set tempo
stop
Help us to improve Ultimate-Guitar.com Take our survey!
×
Author
Difficulty
intermediate
INTRO

E|------------|
B|------------|
G|-12-9-------|
D|-12-9-10-12-|
A|-10-7-10-12-|
E|------8--10-|

VERSE

ACOUSTIC

E|-3--------2-|
B|-------1--3-|
G|----------2-|
D|----2--2----|
A|-2--2--3----|
E|-3----------|

Electric 1

E|-------------     --------------    -----|
B|----------12-     -----------13-    --10-|
G|-12-11-12----     --12-11-12----    -----|
D|------------- x4  -------------- x2 -----|
A|-------------     --------------    -----|
E|-------------     --------------    -----|

Electric 2

E|------------|
B|------------|
G|-12-9-------|
D|-12-9-10-12-|
A|-10-7-10-12-|
E|------8--10-|

CHORUS

Electric 1

E|-15----15----15----14-     --15----15----15----17-|
B|----15----15----15----     -----15----15----15----|
G|----------------------     -----------------------|
D|---------------------- x3  -----------------------|
A|----------------------     -----------------------|
E|----------------------     -----------------------|

Electric 2

E|------------|
B|------------|
G|-12-9-------|
D|-12-9-10-12-|
A|-10-7-10-12-|
E|------8--10-|

VERSE ADD...

Electric 3
(short,staccato,soft)
E|-----------|
B|-----------|
G|-12--16--4-|
D|-----------|
A|-----------|
E|-----------|

CHORUS

BRIDGE
 (repeatedly)
E|-15--------15-------|
B|----15--------15----|
G|--------12-------12-|
D|--------------------|
A|--------------------|
E|--------------------|

CHORUS
Suggest correction
Give kudos to tab author, rate the tab!
1 2 3 4 5
comments
print report bad tab
guest
You may want to rate the tab now too:
select rating
Wanna post a correction for this tab? Suggest correction