Oops, an error
Loading. Please wait.

Nothing Left To Say Tab

version 1
version 1

Whole song

3,248 views 6 this week
no commentswrite comment
1 2 3 4 5
accurate
x 6
add to favorites
launch autoscroll
font size
0
reset
how to read this tab
guitar tuner
Tab Pro tools
  • play this tab
  • loop segment
  • change instrument
  • show fretboard
  • metronome
×
Best way to learn
"Nothing Left To Say"
Autoscroll
slow
fast
+/-
esc
set tempo
stop
Contributor
Difficulty
Tuning
intermediate
D A D G B E


This will be much easier to play if you listen to the song :)

INTRO

Electric 2
Clean
(Riff 1)
E|--------------------------                     ----------|
B|--------------------------                     ----------|
G|-14-16-17--16-17--16-17---                     --12------|
D|---------15-----17-----14- a couple times then ----15-14-|
A|--------------------------                     ----------|
D|--------------------------                     ----------|

Electric 3
Clean
(Riff 2)
E|------------------|
B|------------------|
G|------------------|
D|-10-12-14-12-10-9-|
A|------------------|
D|------------------|

Electric 1
Mild Distortion

E|---------------------------------------------|
B|-13-12-10--13-12-10---13-12-10---------------|
G|---------9---------10----------9-7h9r7-------|
D|--------------------------------------10-9-7-|
A|---------------------------------------------|
D|---------------------------------------------|

VERSE

(Riff 1)+(Riff 2)

CHORUS

Electric 3
Mild Distortion

E|-----------|
B|-----------|
G|-----------|
D|-7-15-10-9-|
A|-7-15-10-9-|
D|-7-15-10-9-|

Electric 1
Synth/Organ

E|--------------|
B|--------------|
G|-11-10-12-9-7-|
D|-x--x--x--x-x-|
A|-12-8--10-7-5-|
D|--------------|

Electric 2

(Riff 1)

VERSE

(Riff 1)+(Riff 2) and....

E|--------------------------------|
B|-10------10-------8------8------|
G|---9-------10------9------9-----|
D|----10-7-----10-7---10-----10-9-|
A|----------------------10--------|
D|--------------------------------|


CHORUS

BRIDGE

(Riff 1) and....

Electric 1
Clean

E|------------- ------------ --------- ------------|
B|------------- ------------ --------- ------------|
G|------9------ ------------ ------9-- ------------|
D|-10-12-12--12 -12-14-15-14 -10-12-12 -9-10-12-10-| (each part is played
A|------------- ------------ --------- ------------|  more than once)
D|------------- ------------ --------- ------------|


CHORUS

OUTRO

(Riff 1) with variations

Acoustic

  Am     F     C     G
E|-------1-----------3-|
B|-1-----1-----1-------|
G|-2-----2-------------|
D|-2-----4-----2-------|
A|-------3-----3-----2-|
D|-------1-----------3-|
comments
print report bad tab
I want to post or [tab]
guest
You may want to rate the tab now too:
select rating
Please do not post tabs as comments. Select "correction" instead!