Oops, an error
Loading. Please wait.

Nothing Left To Say chords

version 2
version 2

Whole song

  • Mine has improved chords as well as a good fingers... Show more
1,151 views 12 this week
no commentswrite comment
1 2 3 4 5
x 3
add to favorites
×
Save as Personal and add changes to this tab that will be seen only by you. Learn more ›
×
You can save this tab as Personal to edit and correct it or add notes. All changes will be seen only by you. Learn more »
launch autoscroll
font size
0
reset
transpose
0
reset
display chords
guitar tuner
edit
Autoscroll
slow
fast
+/-
esc
set tempo
stop
Author
Difficulty
About this tab version
Mine has improved chords as well as a good fingerstyle tab for the intro and another tab for an outro bit. Was this info helpful? Yes No
Strumming
There is no strumming pattern for this song yet. and get +5 IQ
-----------------------------------------------------------------------------------
                           *****NOTHING LEFT TO SAY*****
               *****Imagine Dragons from the album Night Visions*****
-----------------------------------------------------------------------------------
*READ* 
Hi Guys! This is my first tab/chords so go easy on me. This song and all of the stuff about this
song belongs to imagine dragons, not me. The Em can also be played as an E, C/B or G. Also really
try pluck all the strings at once (in the intro) Please  credit me if  you use this.
Enjoy. (Tabbed by Cobcanon)

************************************************
| /   slide up
| \   slide down
| h   hammer-on
| p   pull-off
| +   harmonic
| x   Mute note
| ()  Continue sustaining note
| _   Sustain
************************************************

Key of C
(no capo)


Intro:
  Am                        F                        C
e|----------|-------------|----------|-------------|----------|-------------|
B|-1--------|(1)---0---1--|----------|------0---1--|-1--------|(1)---0---1--|
G|-2--------|(2)----------|-2--------|(2)----------|-0--------|(0)----------|
D|-2--------|(2)----------|-3--------|(3)----------|----------|-------------|
A|-0--------|(0)---2---3--|-3--------|(3)---2---3--|-3--------|(3)---2---3--|
E|----------|-------------|-1--------|(1)----------|----------|-------------|

  E              *See alternative intro at bottom of page
e|----------|------------|-------------|-------------|-------------|-------------|
B|----------|------------|-1--0--------|------0---1--|-1--0--------|------0---1--|
G|-1--------|(1)---------|-------2-----|-------------|-------2-----|-------------|
D|-2--------|(2)---------|-3--------2--|(2)----------|-3--------3--|(3)----------|
A|----------|-3------2---|-------------|------2---3--|----------3--|(3)---2---3--|
E|-0--------|(0)---------|----------0--|(0)----------|----------1--|(1)----------|

                E                     C      E     Am
e|-------------|-0----------|----------|----------|
B|-1--0-----3--|------------|----------|-1-----0--|
G|-------2-----|------------|-1--------|----------| Begin chords straight away
D|-3--------0--|-2------0-2-|-2--------|-2--------|
A|-------------|------------|-2--------|-3-----2--|
E|-------------|-0----------|----------|----------|

Am                                 F
Who knows how long I've been awake now?
F                                 C
The shadows on my wall don't sleep
C
They keep calling me
Em
Beckoning...
Am                                                F
Who knows what's right? The lines keep getting thinner
F                         C
My age has never made me wise
C                  Em
But I keep pushing on and on and on and on

Chorus:
Am
There's nothing left to say now
F
There's nothing left to say now
C
I'm giving up, giving up, hey hey, giving up now
Em
I'm giving up, giving up, hey hey, giving up now

Verse 2:
Am                           F
Below my soul I feel an engine
F                           C
Collapsing as it sees the pain
C                  Em
If I could only shut it out
Am                               F
I've come too far to see the end now
F                   C
Even if my way is wrong
C              Em
I keep pushing on and on and on and on

Chorus:
Am
There's nothing left to say now
F
There's nothing left to say now
C
I'm giving up, giving up, hey hey, giving up now
Em
I'm giving up, giving up, hey hey, giving up now

Bridge:
Am                             F
I keep falling, I keep falling down
F                             C         Em
I keep falling, I keep falling down
Am                             F
I keep falling, I keep falling down
F                             C
I keep falling, I keep falling down
C                   Em
If you could only save me
Em                               Am
I'm drowning in the waters of my soul

Chorus:
Am
There's nothing left to say now
F
There's nothing left to say now
C
I'm giving up, giving up, hey hey, giving up now
Em
I'm giving up, giving up, hey hey, giving up now

Outro:
Am      F       C       Em

Violin-like bit (at about 2:57)

e|----------------|----------------|----------------|----------------|
B|----------------|----------------|----------------|----------------|
G|----------------|----------------|----------------|----------------|
D|---0-2-0---0-2-0|---0-2-0---0-2-0|---0-3-0---0-3-0|---0-3-0---0-3-0|
A|-3-------3------|-3-------3------|-3-------3------|-3-------3------|
E|----------------|----------------|----------------|----------------|

e|-------------------------------------------------------------------|
B|-------------------------------------------------------------------|
G|----------------|----------------|----------------|----------------|
D|---0-2-0---0-2-0|---0-2-0---0-2-0|---0-2-0---0-2-0|---0-2-0-3-2-0--|
A|-3-------3------|-3-------3------|-2-------2------|-2-------------3| Repeat
E|----------------|----------------|----------------|----------------|
*If you like it better you can play it up an octave (using the 12th fret is best)

Alternative Intro (The descending notes at about 0:16)

e|-8-7-5----8-7-5----8-7-5--------------------|
B|-------5--------6--------3-5--3h5p3_--------|
G|--------------------------------------5-4-2_|
D|--------------------------------------------|
A|------------------------------------------0_|
D|--------------------------------------------|
Suggest correction
Creating personal tab
Creating personal tab
You can edit any tab online and save it as your Personal.

You can edit, replace or remove any tab part or add personal notes – all changes will be seen only by you.

Personal tabs can be accessed anytime from any device, even offline.
Learn more »
Give kudos to tab author, rate the tab!
1 2 3 4 5
comments
print report bad tab
guest
You may want to rate the tab now too:
select rating
Wanna post a correction for this tab? Suggest correction