Oops, an error
Loading. Please wait.

Pantomime Tab

1,510 views 9 this week
no commentswrite comment
1 2 3 4 5
please rate
add to favorites
launch autoscroll
font size
0
reset
how to read this tab
guitar tuner
Autoscroll
slow
fast
+/-
esc
set tempo
stop
Help us to improve Ultimate-Guitar.com Take our survey!
×
Author
Difficulty
intermediate

INTRO

Electric 2
  (strums)
E|-------------|
B|-12-11-12-10-|
G|-9--9--9--10-|
D|-------------|
A|-------------|
E|-------------|

Electric 1
Synth
E|-------------|
B|----------16-|
G|-13-16-18----|
D|-------------|
A|-------------|
E|-------------|

Electric 3
Bass
E|------------------|
B|------------------|
G|------------------|
D|------------------|
A|------------------|
E|-4-44-4-44-2-22-2-|

VERSE

Electric 2
(same as above)

Electric 1
E|--------------|
B|-16\11-12\9\7-|
G|--------------|
D|--------------|
A|--------------|
E|--------------|

Electric 3
Bass
E|----------------------------------|
B|----------------------------------|
G|----------------------------------|
D|----------------------------------| x2
A|----------------------------------|
E|-0-00-x4-4-44-4-44-4h6/7-2-22h4/6-|

Chorus

Electric 2
E|-7-7-11-4-|
B|-8-9-12-5-|
G|-7---11-4-|
D|----------|
A|----------|
E|----------|

Electric 1 does some picking with these chords

Intro

Verse

Chorus

Bridge
(has chorus chords but also these ones)

Electric 2
Mild Distortion

E|---------|
B|-----6---|
G|-----6-9-|
D|-9-4-6-9-|
A|-9-4-4-7-|
E|-7-2-----|

Chorus

Bridge

Chorus
(add)
Electric 3
(each played a # of times)
E|-----------|
B|-12-10-9-7-|
G|-----------|
D|-----------|
A|-----------|
E|-----------|

Intro

Verse

Outro Solo

Electric 1

E|---------------------------------------14-------|
B|-12h14h16-14r12----12/9-12h14h16-14r12----14r12-|
G|----------------15------------------------------|
D|------------------------------------------------|
A|------------------------------------------------|
E|------------------------------------------------|

----------------14-16\11----------14----------------|
-12h14h16-14r12----------12h14h16----16-14-12-14-12-|
----------------------------------------------------|
----------------------------------------------------|
----------------------------------------------------|
----------------------------------------------------|
Suggest correction
What's this?
You can suggest a correction to this tab. Community and Mods will review your correction and vote to approve or reject it.
comments
We did not receive enough feedback on this tab! Please rate:
print report bad tab
1 2 3 4 5
guest
You may want to rate the tab now too:
select rating
Please do not post tabs as comments. Select "correction" instead!