Oops, an error
Loading. Please wait.
We have an official Radioactive tab made by UG professional guitarists. Check out the tab »
×

Radioactive solo tab

version 2
version 2

Solo

  • You can play electric guitar. Follow the steps in the rhythm of the song.

Whole song

Interactive

391 views 36 this week
no commentswrite comment
1 2 3 4 5
3 more votes to show rating
add to favorites
×
Save as Personal and add changes to this tab that will be seen only by you. Learn more ›
×
You can save this tab as Personal to edit and correct it or add notes. All changes will be seen only by you. Learn more »
launch autoscroll
font size
0
reset
how to read this tab
guitar tuner
backing track
0:00
0:00
edit
Autoscroll
slow
fast
+/-
esc
set tempo
stop
About this tab version
You can play electric guitar. Follow the steps in the rhythm of the song. Was this info helpful? Yes No
[Stave 1]
e|---------------------------------------------------------|
B|---------------------------------------------------------|
G|---------------------------------------------------------|
D|-----4--4--2-----4--4--2---------------------------------|
A|--2-----------0-----------4--4--4--4--4/4--4--4/4--2--2--|
E|---------------------------------------------------------|

[Stave 2]
e|--------------------------|
B|--------------------------|
G|--------------------------|
D|-----4--4--2--------------|
A|--2-----------0--0--0--0--|
E|--------------------------|

[Stave 3]
e|-------------------------------------------------------------|
B|-------------------------------------------------------------|
G|-----11--11--9-----11--11--9--6--6--6--6--6\6--6--6\6--4--4--|
D|--9-------------7--------------------------------------------|
A|-------------------------------------------------------------|
E|-------------------------------------------------------------|

[Stave 4]
e|-----------------------------------------------------|
B|-----7--7--5-----------------------------------------|
G|--4-----------2--2--2--2-----2--6--4-----4--4--4--4--|
D|-----------------------------------------------------|
A|-----------------------------------------------------|
E|-----------------------------------------------------|

[Stave 5]
e|----------------------------------------------|
B|--12--12--12--10--10--7--10--10--10--9--9--5--|
G|----------------------------------------------|
D|----------------------------------------------|
A|----------------------------------------------|
E|----------------------------------------------|

[Stave 6]
e|----------------------------------------|
B|----------------------------------------|
G|--11--9--11--9--11--4-----11--9--11--4--|
D|----------------------------------------|
A|----------------------------------------|
E|----------------------------------------|

[Stave 7]
e|-----------------------------------------|
B|-----------------------------------------|
G|--11--9--11--9--11--4-----4--4--4--4--7--|
D|-----------------------------------------|
A|-----------------------------------------|
E|-----------------------------------------|

[Stave 8]
e|--------------------------------------------------------------------------------|
B|--------------------------------------------------------------------------------|
G|--11--9--7--9--4--11--9--7--9--4-----14--14--14--14--13-----13--13--13--13--11--|      x2
D|--------------------------------------------------------------------------------|
A|--------------------------------------------------------------------------------|
E|--------------------------------------------------------------------------------|

[Stave 9]
e|--------------------------------------------------------------------------------|
B|--------------------------------------------------------------------------------|
G|--11--9--7--9--4--11--9--7--9--4-----14--14--14--14--13-----13--13--13--13--11--|
D|--------------------------------------------------------------------------------|
A|--------------------------------------------------------------------------------|
E|--------------------------------------------------------------------------------|

[Stave 10]
e|------14--12--12------14--14--12--------------------------------------------|
B|--12--------------10--------------14--14--14--14--14/14--14--14/14--12--12--|
G|----------------------------------------------------------------------------|
D|----------------------------------------------------------------------------|
A|----------------------------------------------------------------------------|
E|----------------------------------------------------------------------------|

[Stave 11]
e|------14--14--12---------------------------------|
B|--12--------------10--10--10--10-----10--14--12--|
G|-------------------------------------------------|
D|-------------------------------------------------|
A|-------------------------------------------------|
E|-------------------------------------------------|

[Stave 12]
e|------14--14--12------14--14--12--------------------------------------------|
B|--12--------------10--------------14--14--14--14--14/14--14--14/14--12--12--|
G|----------------------------------------------------------------------------|
D|----------------------------------------------------------------------------|
A|----------------------------------------------------------------------------|
E|----------------------------------------------------------------------------|

[Stave 13]
e|------14--14--12----------------------------------------------------|
B|--12--------------10--10--10--10-----10--14--12-----12--12--12--12--|
G|--------------------------------------------------------------------|
D|--------------------------------------------------------------------|
A|--------------------------------------------------------------------|
E|--------------------------------------------------------------------|

[Stave 14]
e|--19--19--19--17--17--14--17--17--17--16--16--12--|
B|--------------------------------------------------|
G|--------------------------------------------------|
D|--------------------------------------------------|
A|--------------------------------------------------|
E|--------------------------------------------------|

[Stave 15]
e|--14--12--14--12--14--7-----14--12--14--7--|
B|-------------------------------------------|
G|-------------------------------------------|
D|-------------------------------------------|
A|-------------------------------------------|
E|-------------------------------------------|

[Stave 16]
e|--14--12--14--12--14--7-----7--7--7--7--10--|
B|--------------------------------------------|
G|--------------------------------------------|
D|--------------------------------------------|
A|--------------------------------------------|
E|--------------------------------------------|

[Stave 17]
e|--14--12--10--12--7--14--12--10--12--7-----17--17--17--17--16-----16--16--16--16--14--|
B|--------------------------------------------------------------------------------------|

G|--------------------------------------------------------------------------------------|            x2
D|--------------------------------------------------------------------------------------|
A|--------------------------------------------------------------------------------------|
E|--------------------------------------------------------------------------------------|

[Stave 18]
e|---------------------------------------------------------------------------|
B|---------------------------------------------------------------------------|
G|--7--7h9--9h6--6--6--6--4--4-----7--7h9--9h6--2h6--6--4--4-----4--4--4--4--|
D|---------------------------------------------------------------------------|
A|---------------------------------------------------------------------------|
E|---------------------------------------------------------------------------|

[Stave 19]
e|----------------------------------------------|
B|--12--12--12--10--10--7--10--10--10--9--9--5--|
G|----------------------------------------------|
D|----------------------------------------------|
A|----------------------------------------------|
E|----------------------------------------------|

[Stave 20]
e|----------------------------------------|
B|----------------------------------------|
G|--11--9--11--9--11--4-----11--9--11--4--|
D|----------------------------------------|
A|----------------------------------------|
E|----------------------------------------|

[Stave 21]
e|-----------------------------------------|
B|-----------------------------------------|
G|--11--9--11--9--11--4-----4--4--4--4--7--|
D|-----------------------------------------|
A|-----------------------------------------|
E|-----------------------------------------|

[Stave 22]
e|--------------------------------------------------------------------------------|
B|--------------------------------------------------------------------------------|
G|--11--9--7--9--4--11--9--7--9--4-----14--14--14--14--13-----13--13--13--13--11--|                  x2
D|--------------------------------------------------------------------------------|
A|--------------------------------------------------------------------------------|
E|--------------------------------------------------------------------------------|



************************************

| /  Slide up
| \  Slide down
| x  Dead note
| h  Hammer-on

************************************

            
            
Suggest correction
Creating personal tab
Creating personal tab
You can edit any tab online and save it as your Personal.

You can edit, replace or remove any tab part or add personal notes – all changes will be seen only by you.

Personal tabs can be accessed anytime from any device, even offline.
Learn more »
Give kudos to tab author, rate the tab!
1 2 3 4 5
comments
print report bad tab
guest
You may want to rate the tab now too:
select rating
Wanna post a correction for this tab? Suggest correction