Oops, an error
Loading. Please wait.
We have an official Radioactive tab made by UG professional guitarists. Check out the tab »
×

Radioactive Acoustic tab

version 3
version 3

Whole song

Interactive

Video

8,435 views 69 this week
1 commentread comment
1 2 3 4 5
x 5
add to favorites
×
Save as Personal and add changes to this tab that will be seen only by you. Learn more ›
×
You can save this tab as Personal to edit and correct it or add notes. All changes will be seen only by you. Learn more »
launch autoscroll
font size
0
reset
how to read this tab
guitar tuner
backing track
0:00
0:00
edit
Autoscroll
slow
fast
+/-
esc
set tempo
stop
Author
Difficulty
                             Radioactive By Imagine Dragons

Tabbed by: weswellker83
Tuning:Standard Tuning 
Strumming Pattern: D,D,U,U,D
Repeat throughout the entire song

e|---------------------------------------------------------------------------|
B|---------------------------------------------------------------------------|
G|-4-4-4-4-4-----7-7-7-7-7----6-6-6-6-6-----1-1-1-1-1------------------------|
D|-4-4-4-4-4-----7-7-7-7-7----7-7-7-7-7-----2-2-2-2-2------------------------|
A|-2-2-2-2-2-----5-5-5-5-5----7-7-7-7-7-----2-2-2-2-2------------------------|
E|----------------------------5-5-5-5-5--------------------------------------|

e|---------------------------------------------------------------------------|
B|---------------------------------------------------------------------------|
G|-4-4-4-4-4-----7-7-7-7-7----6-6-6-6-6-----1-1-1-1-1------------------------|
D|-4-4-4-4-4-----7-7-7-7-7----7-7-7-7-7-----2-2-2-2-2------------------------|
A|-2-2-2-2-2-----5-5-5-5-5----7-7-7-7-7-----2-2-2-2-2------------------------|
E|----------------------------5-5-5-5-5--------------------------------------|

e|---------------------------------------------------------------------------|
B|---------------------------------------------------------------------------|
G|-4-4-4-4-4-----7-7-7-7-7----6-6-6-6-6-----1-1-1-1-1------------------------|
D|-4-4-4-4-4-----7-7-7-7-7----7-7-7-7-7-----2-2-2-2-2------------------------|
A|-2-2-2-2-2-----5-5-5-5-5----7-7-7-7-7-----2-2-2-2-2------------------------|
E|----------------------------5-5-5-5-5--------------------------------------|






************************************

| /   slide up
| \   slide down
| h   hammer-on
| p   pull-off
| ~   vibrato
| +   harmonic
| x   Mute note
| b   Bend
| pb  Pre-bend
| br  Bend release
| pbr Pre-bend release
| brb Bend release bend

************************************

            
            
Suggest correction
Creating personal tab
Creating personal tab
You can edit any tab online and save it as your Personal.

You can edit, replace or remove any tab part or add personal notes – all changes will be seen only by you.

Personal tabs can be accessed anytime from any device, even offline.
Learn more »
comments
print report bad tab
1 comment total.
0 reply
Pelusteriano 5,295 Feb 15, 2015 08:55 AM

Lack of accuracy. Tab incomplete. This is just power chords. There isn't any arrangement to justify the submission under "acoustic tab". For an acoustic open chords would sound better.

guest
You may want to rate the tab now too:
select rating
Wanna post a correction for this tab? Suggest correction