Oops, an error
Loading. Please wait.

Radioactive Tab

version 7
version 7

Whole song

Interactive

Video

76 views 3 this week
no commentswrite comment
1 2 3 4 5
3 more votes to show rating
add to favorites
launch autoscroll
font size
0
reset
how to read this tab
guitar tuner
Autoscroll
slow
fast
+/-
esc
set tempo
stop
Help us to improve Ultimate-Guitar.com Take our survey!
×
Author
Difficulty
intermediate
About this tab version
This is the melody of the song, so what the singer is singing but on guitar. Was this info helpful? Yes No
[Verse]

e|---14-14-12--14-14-12----------------------------14-14-12------------------|
B|-12--------12-------------14-14-15---15-14-12--12--------10-10-10--14-12---|x2
G|---------------------------------------------------------------------------|
D|---------------------------------------------------------------------------|
A|---------------------------------------------------------------------------|
E|---------------------------------------------------------------------------|

e|---------------19-19-19-17-17-14---17-17-17-16-16--------------------------|
B|-12-12-12-12-------------------------------------17------------------------|
G|---------------------------------------------------------------------------|
D|---------------------------------------------------------------------------|
A|---------------------------------------------------------------------------|
E|---------------------------------------------------------------------------|

e|-14--14--14---14--14----14--14--14--14--14---------------------------------|
B|---17--17-------17--------17--17------17---------------15------------------|
G|-----------16-------16------------16------16---16-14-16--------------------|
D|---------------------------------------------------------------------------|
A|---------------------------------------------------------------------------|
E|---------------------------------------------------------------------------|


[Chorus]

e|-14-----------14------------17-17-17-17-16--16-16-16-16-14-----------------|
B|---17-15-17-----17-15-17---------------------------------------------------|x2
G|-----------16-----------16-------------------------------------------------|
D|---------------------------------------------------------------------------|
A|---------------------------------------------------------------------------|
E|---------------------------------------------------------------------------|
d


[middle 8]

e|---------------------------------------------------------------------------|
B|-15-15-17-14--14-15-14-12--15-15-17-14--14-15-14-12------------------------|
G|---------------------------------------------------------------------------|
D|---------------------------------------------------------------------------|
A|---------------------------------------------------------------------------|
E|---------------------------------------------------------------------------|
Suggest correction
Give kudos to tab author, rate the tab!
1 2 3 4 5
comments
print report bad tab
guest
You may want to rate the tab now too:
select rating
Wanna post a correction for this tab? Suggest correction