Oops, an error
Loading. Please wait.

Rise Up tab

version 1
version 1

Whole song

  • This is the entire song, a mixture of easy chords ... Show more
  • Much more accurate than other versions.
874 views 87 this week
no commentswrite comment
1 2 3 4 5
x 4
add to favorites
×
Save as Personal and add changes to this tab that will be seen only by you. Learn more ›
×
You can save this tab as Personal to edit and correct it or add notes. All changes will be seen only by you. Learn more »
launch autoscroll
font size
0
reset
how to read this tab
guitar tuner
edit
Autoscroll
slow
fast
+/-
esc
set tempo
stop
About this tab version
This is the entire song, a mixture of easy chords and easy tab, and consists of not only background guitar parts and chords, but the main solo at the end. Was this info helpful? Yes No
[Intro]
(This is the powerchord progression at the beginning. The frets are relative to the capo. They can be strummed 
or arpeggioed (play bottom note then top note separatly).)
e|-----------------|----------------|-----------------------|-------------------------|
B|------------------------------------------------------------------------------------|
G|------------------------------------------------------------------------------------|
D|------------------------------------------------------------------------------------|
A|--5-5-5-5-5-5-5-5-4-4-4-4-4-4-4-4---9--9--9--9--9--9--9--9--9--9--9--9--9--9--9--9--| 
E|--7-7-7-7-7-7-7-7-5-5-5-5-5-5-5-5--10-10-10-10-10-10-10-10-10-10-10-10-10-10-10-10--|

[Verse]
e|-----------------|---------------|------------------------|-------------------------|
B|------------------------------------------------------------------------------------|
G|------------------------------------------------------------------------------------|
D|------------------------------------------------------------------------------------| (x2)
A|--5-5-5-5-5-5-5-5-4-4-4-4-4-4-4-4---9--9--9--9--9--9--9--9--9--9--9--9--9--9--9--9--| 
E|--7-7-7-7-7-7-7-7-5-5-5-5-5-5-5-5--10-10-10-10-10-10-10-10--9--9--9--9--9--9--9--9--|

[Pre Chorus]
(strum down strokes)
G                                                                         D             A
The more I stray the less I fear, And the more I reach the more I fade away
G                                                                         D             A (hold)
The darkness right in front of me Oh it's calling out and I won't walk away

[Chorus] 
(A good strumming pattern for this part is  ↓ ↓  ↑↑↓↓. )
                           D                                A
I would always open up the door Always looking up at higher floors 
                           Bm                               G
Want to see it all give me more (rise, rise up) 
                           D                                A
I was always up for making changes Walking down the street meeting strangers
                           Bm                               G
Flipping through my life turning pages (rise, rise up)

[Verse 2] 
(You can either play the following chords or you can play the power chords from the 1st verse.)
D                                      A                                    G
Like a prayer that only needs a reason Like a hunter waiting for the season (Ey ey ey, ey ey ey)
D                                      A                                        G
I was there but I was always leaving I've been living but I was never breathing (Ey ey ey, ey ey ey)

[Pre-Chorus]
(same as before)
G                                                                         D             A
The more I stray the less I fear, And the more I reach the more I fade away
G                                                                         D             A (hold)
The darkness right in front of me Oh it's calling out and I won't walk away


[Chorus]
                           D                                A
I would always open up the door Always looking up at higher floors 
                           Bm                               G
Want to see it all give me more (rise, rise up) 
                           D                                A
I was always up for making changes Walking down the street meeting strangers
                           Bm                               G
Flipping through my life turning pages (rise, rise up)

[Bridge]
      (D)      (A)     (G)           (D)     (A)     (G)
e|-----2--------0-------------3-2-----2-------0---------------3-2--|
B|---3---3--------2-----3-----------3---3-------2-----3------------|
G|------------2-------0---0-----------------2-------0---0---0------| (x2)
D|-0------------------------------0--------------------------------|
A|----------0-----------------------------0------------------------|
E|------------------3-------3---------------------3-------3--------|

[Chorus]
                           D                                A
I would always open up the door Always looking up at higher floors 
                           Bm                               G
Want to see it all give me more (rise, rise up) 
                           D                                A
I was always up for making changes Walking down the street meeting strangers
                           Bm                               G
Flipping through my life turning pages (rise, rise up)
                           D                                G
I would always open up the door Always looking up at higher floors 
                           Bm                               G
Want to see it all give me more (rise, rise up) 
                           D                                A
I was always up for making changes Walking down the street meeting strangers
                           Bm                               G
Flipping through my life turning pages (rise, rise up)

[Outro/Guitar Solo]
e|------10----14----12--------9----14----12-------10----14----12------10----15----14---|
B|---10----10----10--------10---10----10-------10----10----10------10----10----10------|
G|-------------------------------------------------------------------------------------| (x2)
D|-------------------------------------------------------------------------------------|
A|-------------------------------------------------------------------------------------|
E|-------------------------------------------------------------------------------------|

            
            
Suggest correction
Creating personal tab
Creating personal tab
You can edit any tab online and save it as your Personal.

You can edit, replace or remove any tab part or add personal notes – all changes will be seen only by you.

Personal tabs can be accessed anytime from any device, even offline.
Learn more »
comments
print report bad tab
guest
You may want to rate the tab now too:
select rating
Wanna post a correction for this tab? Suggest correction