Oops, an error
Loading. Please wait.

Rise Up tab

version 2
version 2

Whole song

  • This is the entire song, a mixture of easy chords ... Show more
  • Much more accurate than other versions.
334 views 69 this week
no commentswrite comment
1 2 3 4 5
3 more votes to show rating
add to favorites
×
Save as Personal and add changes to this tab that will be seen only by you. Learn more ›
×
You can save this tab as Personal to edit and correct it or add notes. All changes will be seen only by you. Learn more »
launch autoscroll
font size
0
reset
how to read this tab
guitar tuner
edit
Autoscroll
slow
fast
+/-
esc
set tempo
stop
About this tab version
Much more accurate than other versions. Was this info helpful? Yes No
Check out my cover: https://www.youtube.com/watch?v=5XiouqeERNk

[Verse 1]
e|----------------------|-----------------|-----------------|--------------------|
B|----------------------|-----------------|-----------------|--------------------|
G|----------------------|-----------------|-----------------|--------------------| x3
D|-----8----8----8----8-|---8---8---8---8-|---8---8---8---8-|---8---8---8---8----|
A|--10---10---10---10---|-8---8---8---8---|-6---6---6---6---|-6---6---6---6------|
E|----------------------|-----------------|-----------------|--------------------|

[Verse 2]
"I would always open up the door..."
e|--------------------------|-------------------------|-------------------------|---------------------------|
B|--16-16-16-16-16-16-16-16-|-16-16-16-16-16-16-16-16-|-15-15-15-15-15-15-15-15-|-15-15-15-15-15-15-15-15---|
G|--------------------------|-------------------------|-------------------------|---------------------------|
D|--------------------------|-------------------------|-------------------------|---------------------------|
A|--------------------------|-------------------------|-------------------------|---------------------------|
E|--------------------------|-------------------------|-------------------------|---------------------------|

e|--------------------------|-------------------------|-------------------------|---------------------------|
B|--13-13-13-13-13-13-13-13-|-13-13-13-13-13-13-13-13-|-13-13-13-13-13-13-13-13-|-13-13-13-13-15-15-15-15---|
G|--------------------------|-------------------------|-------------------------|---------------------------|
D|--------------------------|-------------------------|-------------------------|---------------------------|
A|--------------------------|-------------------------|-------------------------|---------------------------|
E|--------------------------|-------------------------|-------------------------|---------------------------|

e|--------------------------|-------------------------|-------------------------|---------------------------|
B|--16-16-16-16-16-16-16-16-|-16-16-16-16-16-16-16-16-|-15-15-15-15-15-15-15-15-|-15-15-15-15-15-15-15-15---|
G|--------------------------|-------------------------|-------------------------|---------------------------|
D|--------------------------|-------------------------|-------------------------|---------------------------|
A|--------------------------|-------------------------|-------------------------|---------------------------|
E|--------------------------|-------------------------|-------------------------|---------------------------|

e|--------------------------|-------------------------|-------------------------|---------------------------|
B|--13-13-13-13-13-13-13-13-|-13-13-13-13-13-13-13-13-|-13-13-13-13-13-13-13-13-|-13-13-13-13-15-15-15-15---|
G|--------------------------|-------------------------|-------------------------|---------------------------|
D|--------------------------|-------------------------|-------------------------|---------------------------|
A|--------------------------|-------------------------|-------------------------|---------------------------|
E|--------------------------|-------------------------|-------------------------|---------------------------|

e|--15-15-15-15-15-15-15-15-|-15-15-15-15-15-15-15-15-|-13-13-13-13-13-13-13-13-|-13-13-13-13-13-13-13-13---|
B|--------------------------|-------------------------|-------------------------|---------------------------|
G|--------------------------|-------------------------|-------------------------|---------------------------|
D|--------------------------|-------------------------|-------------------------|---------------------------|
A|--------------------------|-------------------------|-------------------------|---------------------------|
E|--------------------------|-------------------------|-------------------------|---------------------------|

e|--------------------------|-------------------------|-------------------------|---------------------------|
B|--16-16-16-16-16-16-16-16-|-16-16-16-16-16-16-16-16-|-16-16-16-16-16-16-16-16-|-16-16-16-16-16-16-16-16---|
G|--------------------------|-------------------------|-------------------------|---------------------------|
D|--------------------------|-------------------------|-------------------------|---------------------------|
A|--------------------------|-------------------------|-------------------------|---------------------------|
E|--------------------------|-------------------------|-------------------------|---------------------------|

e|--15-15-15-15-15-15-15-15-|-15-15-15-15-15-15-15-15-|-13-13-13-13-13-13-13-13-|-13-13-13-13-13-13-13-13---|
B|--------------------------|-------------------------|-------------------------|---------------------------|
G|--------------------------|-------------------------|-------------------------|---------------------------|
D|--------------------------|-------------------------|-------------------------|---------------------------|
A|--------------------------|-------------------------|-------------------------|---------------------------|
E|--------------------------|-------------------------|-------------------------|---------------------------|

e|--------------------------|-------------------------|-------------------------|---------------------------|
B|--16-16-16-16-16-16-16-16-|-16-16-16-16-16-16-16-16-|-16-16-16-16-16-16-16-16-|-16-16-16-16-16-16-16-16---|
G|--------------------------|-------------------------|-------------------------|---------------------------|
D|--------------------------|-------------------------|-------------------------|---------------------------|
A|--------------------------|-------------------------|-------------------------|---------------------------|
E|--------------------------|-------------------------|-------------------------|---------------------------|

[Chorus 2]
"The more I stray, the less I fear..."
e|--------------------------|-------------------------|-------------------------|-16-16-16-16-16-16-16-16---|
B|--13-13-13-13-13-13-13-13-|-15-15-15-15-15-15-15-15-|-16-16-16-16-16-16-16-16-|---------------------------|
G|--------------------------|-------------------------|-------------------------|---------------------------|
D|--------------------------|-------------------------|-------------------------|---------------------------|
A|--------------------------|-------------------------|-------------------------|---------------------------|
E|--------------------------|-------------------------|-------------------------|---------------------------|

e|--------15-------15-------|-------15-------15-------------------------------|
B|--16-18----16-18----18-16-|-16-18----16-18----18-16-------------------------|
G|--------------------------|-------------------------------------------------|
D|--------------------------|-------------------------------------------------|
A|--------------------------|-------------------------------------------------|
E|--------------------------|-------------------------------------------------|

e|--------------------------|-------------------------|-------------------------|-16-16-16-16-16-16-16-16---|
B|--13-13-13-13-13-13-13-13-|-15-15-15-15-15-15-15-15-|-16-16-16-16-16-16-16-16-|---------------------------|
G|--------------------------|-------------------------|-------------------------|---------------------------|
D|--------------------------|-------------------------|-------------------------|---------------------------|
A|--------------------------|-------------------------|-------------------------|---------------------------|
E|--------------------------|-------------------------|-------------------------|---------------------------|

e|--------15-------15-------|-------15-------15-------------------------------|
B|--16-18----16-18----18-16-|-16-18----16-18----18-16-------------------------|
G|--------------------------|-------------------------------------------------|
D|--------------------------|-------------------------------------------------|
A|--------------------------|-------------------------------------------------|
E|--------------------------|-------------------------------------------------|

[Verse 3]
"I would always open up the door..."
e|--------------------------|-------------------------|-------------------------|---------------------------|
B|--16-16-16-16-16-16-16-16-|-16-16-16-16-16-16-16-16-|-15-15-15-15-15-15-15-15-|-15-15-15-15-15-15-15-15---|
G|--------------------------|-------------------------|-------------------------|---------------------------|
D|--------------------------|-------------------------|-------------------------|---------------------------|
A|--------------------------|-------------------------|-------------------------|---------------------------|
E|--------------------------|-------------------------|-------------------------|---------------------------|

e|--------------------------|-------------------------|-------------------------|---------------------------|
B|--13-13-13-13-13-13-13-13-|-13-13-13-13-13-13-13-13-|-13-13-13-13-13-13-13-13-|-13-13-13-13-15-15-15-15---|
G|--------------------------|-------------------------|-------------------------|---------------------------|
D|--------------------------|-------------------------|-------------------------|---------------------------|
A|--------------------------|-------------------------|-------------------------|---------------------------|
E|--------------------------|-------------------------|-------------------------|---------------------------|

e|--------------------------|-------------------------|-------------------------|---------------------------|
B|--16-16-16-16-16-16-16-16-|-16-16-16-16-16-16-16-16-|-15-15-15-15-15-15-15-15-|-15-15-15-15-15-15-15-15---|
G|--------------------------|-------------------------|-------------------------|---------------------------|
D|--------------------------|-------------------------|-------------------------|---------------------------|
A|--------------------------|-------------------------|-------------------------|---------------------------|
E|--------------------------|-------------------------|-------------------------|---------------------------|

e|--------------------------|-------------------------|-------------------------|---------------------------|
B|--13-13-13-13-13-13-13-13-|-13-13-13-13-13-13-13-13-|-13-13-13-13-13-13-13-13-|-13-13-13-13-15-15-15-15---|
G|--------------------------|-------------------------|-------------------------|---------------------------|
D|--------------------------|-------------------------|-------------------------|---------------------------|
A|--------------------------|-------------------------|-------------------------|---------------------------|
E|--------------------------|-------------------------|-------------------------|---------------------------|

[Verse 4 after bridge]
"I would always open up the door..."
e|--------------------------|-------------------------|-------------------------|---------------------------|
B|--16-16-16-16-16-16-16-16-|-16-16-16-16-16-16-16-16-|-15-15-15-15-15-15-15-15-|-15-15-15-15-15-15-15-15---|
G|--------------------------|-------------------------|-------------------------|---------------------------|
D|--------------------------|-------------------------|-------------------------|---------------------------|
A|--------------------------|-------------------------|-------------------------|---------------------------|
E|--------------------------|-------------------------|-------------------------|---------------------------|

e|--------------------------|-------------------------|-------------------------|---------------------------|
B|--13-13-13-13-13-13-13-13-|-13-13-13-13-13-13-13-13-|-13-13-13-13-13-13-13-13-|-13-13-13-13-15-15-15-15---|
G|--------------------------|-------------------------|-------------------------|---------------------------|
D|--------------------------|-------------------------|-------------------------|---------------------------|
A|--------------------------|-------------------------|-------------------------|---------------------------|
E|--------------------------|-------------------------|-------------------------|---------------------------|

e|--------------------------|-------------------------|-------------------------|---------------------------|
B|--16-16-16-16-16-16-16-16-|-16-16-16-16-16-16-16-16-|-15-15-15-15-15-15-15-15-|-15-15-15-15-15-15-15-15---|
G|--------------------------|-------------------------|-------------------------|---------------------------|
D|--------------------------|-------------------------|-------------------------|---------------------------|
A|--------------------------|-------------------------|-------------------------|---------------------------|
E|--------------------------|-------------------------|-------------------------|---------------------------|

e|--------------------------|-------------------------|-------------------------|---------------------------|
B|--13-13-13-13-13-13-13-13-|-13-13-13-13-13-13-13-13-|-13-13-13-13-13-13-13-13-|-13-13-13-13-15-15-15-15---|
G|--------------------------|-------------------------|-------------------------|---------------------------|
D|--------------------------|-------------------------|-------------------------|---------------------------|
A|--------------------------|-------------------------|-------------------------|---------------------------|
E|--------------------------|-------------------------|-------------------------|---------------------------|

e|--------------------------|-------------------------|-------------------------|---------------------------|
B|--16-16-16-16-16-16-16-16-|-16-16-16-16-16-16-16-16-|-15-15-15-15-15-15-15-15-|-15-15-15-15-15-15-15-15---|
G|--------------------------|-------------------------|-------------------------|---------------------------|
D|--------------------------|-------------------------|-------------------------|---------------------------|
A|--------------------------|-------------------------|-------------------------|---------------------------|
E|--------------------------|-------------------------|-------------------------|---------------------------|

e|--------------------------|-------------------------|-------------------------|---------------------------|
B|--13-13-13-13-13-13-13-13-|-13-13-13-13-13-13-13-13-|-13-13-13-13-13-13-13-13-|-13-13-13-13-15-15-15-15---|
G|--------------------------|-------------------------|-------------------------|---------------------------|
D|--------------------------|-------------------------|-------------------------|---------------------------|
A|--------------------------|-------------------------|-------------------------|---------------------------|
E|--------------------------|-------------------------|-------------------------|---------------------------|

e|--------------------------|-------------------------|-------------------------|---------------------------|
B|--16-16-16-16-16-16-16-16-|-16-16-16-16-16-16-16-16-|-15-15-15-15-15-15-15-15-|-15-15-15-15-15-15-15-15---|
G|--------------------------|-------------------------|-------------------------|---------------------------|
D|--------------------------|-------------------------|-------------------------|---------------------------|
A|--------------------------|-------------------------|-------------------------|---------------------------|
E|--------------------------|-------------------------|-------------------------|---------------------------|

e|--------------------------|-------------------------|-------------------------|---------------------------|
B|--13-13-13-13-13-13-13-13-|-13-13-13-13-13-13-13-13-|-13-13-13-13-13-13-13-13-|-13-13-13-13-15-15-15-15---|
G|--------------------------|-------------------------|-------------------------|---------------------------|
D|--------------------------|-------------------------|-------------------------|---------------------------|
A|--------------------------|-------------------------|-------------------------|---------------------------|
E|--------------------------|-------------------------|-------------------------|---------------------------|

[Solo]
e|--------11----15----13-|-------11----15----13-|-------11----15----13-|-------11----16----15--|
B|-----11----11----11----|----11----11----11----|----11----11----11----|----11----11----11-----|
G|-----------------------|----------------------|----------------------|-----------------------| (x2)
D|--13-------------------|-13-------------------|-13-------------------|-13--------------------|
A|-----------------------|----------------------|----------------------|-----------------------|
E|-----------------------|----------------------|----------------------|-----------------------|

            
            
Suggest correction
Creating personal tab
Creating personal tab
You can edit any tab online and save it as your Personal.

You can edit, replace or remove any tab part or add personal notes – all changes will be seen only by you.

Personal tabs can be accessed anytime from any device, even offline.
Learn more »
Give kudos to tab author, rate the tab!
1 2 3 4 5
comments
print report bad tab
guest
You may want to rate the tab now too:
select rating
Wanna post a correction for this tab? Suggest correction