Oops, an error
Loading. Please wait.

Round And Round Tab

version 1
version 1

Whole song

7,228 views 21 this week
1 commentread comment
1 2 3 4 5
accurate
x 4
add to favorites
launch autoscroll
font size
0
reset
how to read this tab
guitar tuner
Tab Pro tools
  • play this tab
  • loop segment
  • change instrument
  • show fretboard
  • metronome
×
Best way to learn
"Round And Round"
Autoscroll
slow
fast
+/-
esc
set tempo
stop
Contributor
Difficulty
Tuning
Capo
intermediate
D G C F A D
1st fret

Acoustic
(Capo 1)

   G    Bm   D
E|-3----2----2-|
B|------3----3-|
G|------4----2-|
D|------4------|
A|-3----2------|
E|-2----2------|

VERSE

G-Bm-D-G

CHORUS

D-G-Bm-G

BRIDGE

D-G-D-G-G

ELECTRIC PARTS

INTRO

Electric 1

E|-------------------11-------------------11-
B|-----13-11-13-11-13-------13-11-13-11-13--- <-- X2 then first part 
G|-1313-----------------1212-----------------
D|-------------------------------------------
A|-------------------------------------------
D|-------------------------------------------

Acoustic from up there ^

CHORUS

Electric 2

E|----------------------|
B|----------------------|
G|-8--------------------|
D|-8----6----10----6----|
A|-6----6----10----6----|
D|------6----10----6----|

add intro to chorus


VERSE

add ---> E|------- --------|
         B|----13- -----13-|
         G|-13---- --12----|
         D|------- --------|   play these each to match the song, you'll get
         A|------- --------|   it ;)
         D|------- --------|

BRIDGE

Do some picking with G and D

and then....

Electric 1
Clean

E|----------18-|
B|-16-18-20----|
G|-------------|
D|-------------|
A|-------------|
D|-------------|

CHORUS

SOLO

E|--------------------16-18-20-|
B|-13---15-16---18-20----------|
G|-----------------------------|
D|-----------------------------| <--- (do the extremely fast picking here, 
A|-----------------------------|       the trill i think :P )
D|-----------------------------|
comments
print report bad tab
1 comment total.
0 reply
catalinamylove wrote on February 10 2015, 02:50 pm

didn't like this contribution

I want to post or [tab]
guest
You may want to rate the tab now too:
select rating
Please do not post tabs as comments. Select "correction" instead!