Oops, an error
Loading. Please wait.

Start Over chords

910 views 96 this week
no commentswrite comment
1 2 3 4 5
x 4
add to favorites
×
Save as Personal and add changes to this tab that will be seen only by you. Learn more ›
×
You can save this tab as Personal to edit and correct it or add notes. All changes will be seen only by you. Learn more »
launch autoscroll
font size
0
reset
transpose
0
reset
simplify chords
display chords
guitar tuner
edit
Autoscroll
slow
fast
+/-
esc
set tempo
stop
About this tab version
Includes chords, suggested fingerings, and keyboard melody. Was this info helpful? Yes No
Strumming
There is no strumming pattern for this song yet. and get +5 IQ
Imagine Dragons
"Start Over"

Standard tuning. Capo 4th fret. Corrections welcome.

  FM  Asus4 Gsus4 G6 Fadd9 Am  G   CM  Am9
e|0----0----3-----0---3----0---3---0---0---|
B|1----3----3-----0---1----1---3---0---0---|
G|2----2----5-----0---2----2---4---0---0---| Chords in the Intro, Verse, and Chorus 
D|3----2----5-----0---3----2---5---2---2---| can be simplified to F, Am and G.
A|3----0----5-----2---x----0---5---3---0---|
E|1---------3-----3---1--------3-----------|


[Intro]
  FM              Asus4    Gsus4                    G6              Asus4    Fadd9
e|0-----3-----------------|------------------------|0-----3-----------------|3-----------------------|
B|----------1-----3-------|1-----------------------|----------1-----3-------|------------------------|
G|------------------------|------------------------|------------------------|------------------------|
D|------------------------|------------------------|------------------------|------------------------|
A|------------------------|------------------------|------------------------|------------------------|
E|------------------------|------------------------|------------------------|------------------------|
  FM              Asus4    G6                       G6              Asus4    FM     
e|0-----3-------------0---|0-----------------------|0-----3-----------------|------------------------|
B|----------1-----3-------|------------------------|----------1-----3-------|1-----------------------|
G|------------------------|------------------------|------------------------|------------------------|
D|------------------------|------------------------|------------------------|------------------------|
A|------------------------|------------------------|------------------------|------------------------|
E|------------------------|------------------------|------------------------|------------------------|

[Verse 1]
FM         Am    G
  Clenched teeth, no words
G     Am   FM
  All this distance taking its toll
FM     Am   G
  Speaking volumes
G   Am    FM
  Silence screaming over your words


[Pre-Chorus]
FM                CM
  I never did you right, I know that
Am9                  CM
  Too many sleepless nights, I own that
FM                   CM
  I said it time and time, I know that
Am9            CM
  I wanna try again


[Chorus]
             FM    Asus4 Gsus4
Can we start over?
             G6    Asus4 Fadd9
Can we start over?
             FM    Asus4 Gsus4
Can we start over
            G6   Asus4 Fadd9
Before it's over,      over?


[Verse 2]
FM     Am      G
  Cold nights, cold sheets
G     Am   FM
  One more lonely empty hotel room
FM     Am  G
  What I'd  give to
G      Am FM
  Find my way back into you


[Pre-Chorus]
FM                CM
  I never did you right, I know that
Am9                  CM
  Too many sleepless nights, I own that
FM                   CM
  I said it time and time, I know that
Am9            CM
  I wanna try again


[Chorus]
             FM    Asus4 Gsus4
Can we start over?
             G6    Asus4 Fadd9
Can we start over?
             FM    Asus4 Gsus4
Can we start over
            G6   Asus4 Fadd9
Before it's over,      over?
             FM    Asus4 Gsus4
Can we start over?
           G6      Asus4 Fadd9
Can we get closer?
             FM    Asus4 Gsus4
Can we start over
            G6   Asus4 Fadd9
Before it's over,      over?


[Bridge]
FM                  Am          G
  Come alive, come alive, come alive again
G                   Am         F
  Come alive, come alive, come alive again
FM                  Am          G
  Come alive, come alive, come alive again
G                   Am         F
  Come alive, come alive, come alive again

FM  Am G
G   Am FM

[Chorus]
                           FM    Asus4 Gsus4
Can we start, can we start over?
             G6    Asus4 Fadd9
Can we start over?
             FM    Asus4 Gsus4
Can we start over
            G6   Asus4 Fadd9
Before it's over,      over?
             FM    Asus4 Gsus4
Can we start over?
           G6      Asus4 Fadd9
Can we get closer?
             FM    Asus4 Gsus4
Can we start over
            G6   Asus4 Fadd9
Before it's over,      over?

            
            
Suggest correction
Creating personal tab
Creating personal tab
You can edit any tab online and save it as your Personal.

You can edit, replace or remove any tab part or add personal notes – all changes will be seen only by you.

Personal tabs can be accessed anytime from any device, even offline.
Learn more »
comments
print report bad tab
guest
You may want to rate the tab now too:
select rating
Wanna post a correction for this tab? Suggest correction