Oops, an error
Loading. Please wait.

Summer bass

58 views 1 this week
no commentswrite comment
1 2 3 4 5
3 more votes to show rating
add to favorites
×
Save as Personal and add changes to this tab that will be seen only by you. Learn more ›
×
You can save this tab as Personal to edit and correct it or add notes. All changes will be seen only by you. Learn more »
launch autoscroll
font size
0
reset
guitar tuner
edit
Autoscroll
slow
fast
+/-
esc
set tempo
stop
Author
Difficulty
Artist : Imagine Dragons
Album : Smoke + Mirrors
Song : Summer

The main riff is basically the same, there are some slight variations that make the tab quite long.

[Intro]
 3/4
G|------------------------|------------------------|------------------------|------------------------|
D|------------------------|------------------------|------------------------|----------------------2-|
A|----------------2---2---|0-----------------------|0-0-0-0r----0---2---2---|------------------2-4---|-|
E|2-2-2-2r----2-----------|------------------x-2---|------------------------|2-----------------------| |
  1   +   2   +   3   +    1   +   2   +   3   +    1   +   2   +   3   +    1   +   2   +   3   +     |
                                                                                                       | (x2)
G|------------------------|------------------------|------------------------|------------------------| |
D|4-4-4-4r----4---2-------|------------------------|------------------------|------------------------|-|
A|--------------------2---|0-----------------------|0-0-0-0r----0---2---2---|------------------------|
E|------------------------|------------------x-2---|------------------------|2-----------------x-2---|
  1   +   2   +   3   +    1   +   2   +   3   +    1   +   2   +   3   +    1   +   2   +   3   +    

[Verse]
G|------------------------|------------------------|------------------------|------------------------|
D|------------------------|------------------------|------------------------|------------------------|
A|----------------2---2---|0-----------------------|0-----0r----0---2---2---|------------------------|
E|2-----2r----------------|------------------x-2---|------------------------|2-----------------------|
  1   +   2   +   3   +    1   +   2   +   3   +    1   +   2   +   3   +    1   +   2   +   3   +    

G|------------------------|------------------------|------------------------|------------------------|
D|------------------------|------------------------|------------------------|------------------------|
A|----------------2---2---|0-----------------------|0-----0r--------2---2---|------------------------|
E|2-----2r----------------|------------------------|------------------------|2-----------------------|
  1   +   2   +   3   +    1   +   2   +   3   +    1   +   2   +   3   +    1   +   2   +   3   +    

[Instrumental]
G|------------------------|------------------------|------------------------|------------------------|
D|------------------------|------------------------|------------------------|------------------------|
A|----------------2---2---|0-----------------------|0-----0r--------2---2---|------------------------| (x2)
E|2-----2r----------------|------------------------|------------------------|2-----------------------|
  1   +   2   +   3   +    1   +   2   +   3   +    1   +   2   +   3   +    1   +   2   +   3   +    

[Verse]
G|------------------------|------------------------|------------------------|------------------------|
D|------------------------|------------------------|------------------------|----------------------2-|
A|----------------2---2---|0-----0r----------------|0-----0r--------2---2---|------------------2-4---|
E|2-----2r----------------|------------------x-2---|------------------------|2-----2r----------------|
  1   +   2   +   3   +    1   +   2   +   3   +    1   +   2   +   3   +    1   +   2   +   3   +    

G|------------------------|------------------------|------------------------|------------------------|
D|4-----4r--------2-------|------------------------|------------------------|------------------------|
A|--------------------2---|0-----0r----------------|0-----0---------2---2---|------------------------|
E|------------------------|------------------x-2---|------------------------|2-----------------------|
  1   +   2   +   3   +    1   +   2   +   3   +    1   +   2   +   3   +    1   +   2   +   3   +    

[Instrumental]
G|------------------------|------------------------|------------------------|------------------------|
D|------------------------|------------------------|------------------------|----------------------2-|
A|----------------2---2---|0-----------------------|0-----0r--------2---2---|------------------2-4---|
E|2-----2r----------------|------------------x-2---|------------------------|2-----------------------|
  1   +   2   +   3   +    1   +   2   +   3   +    1   +   2   +   3   +    1   +   2   +   3   +    

G|------------------------|------------------------|------------------------|------------------------|
D|4-----4r--------2-------|------------------------|------------------------|------------------------|
A|--------------------2---|0-----------------------|0-----0r----0---2---2---|------------------------|
E|------------------------|------------------x-2---|------------------------|2-----------------------|
  1   +   2   +   3   +    1   +   2   +   3   +    1   +   2   +   3   +    1   +   2   +   3   +    

[Chorus]
G|------------------------|------------------------|------------------------|------------------------|
D|------7-----------------|------7-----------------|------7-----------------|------7-------------7---|
A|5-------5---5r------0---|5r------5---5r------0---|5r------5---5r------0---|5-------5---5r----------|-|
E|------------------------|------------------------|------------------------|------------------------| |
  1   +   2   +   3   +    1   +   2   +   3   +    1   +   2   +   3   +    1   +   2   +   3   +     |
                                                                                                       | (x2)
G|--------------6p4-------|--------------6p4-------|--------------6p4-------|--------------6p4-------| | 
D|----------7---------7---|----------7-------------|----------7---------7---|----------7-------------|-|
A|0-0-0-7r----------------|0-0-0-7r----------------|0-0-0-7r----------------|0-0-0-7r----------------|
E|------------------------|------------------------|------------------------|------------------------|
  1   +   2   +   3   +    1   +   2   +   3   +    1   +   2   +   3   +    1   +   2   +   3   +  

[Instrumental]  
G|------------------------|------------------------|------------------------|------------------------|
D|------------------------|------------------------|------------------------|----------------------2-|
A|----------------2r--2r--|0-----------------------|0-----0-----0---2---2---|------------------2-4---|
E|------------------------|------------------------|------------------------|2-----------------------|
  1   +   2   +   3   +    1   +   2   +   3   +    1   +   2   +   3   +    1   +   2   +   3   +   
 
G|------------------------|------------------------|------------------------|------------------------|
D|4-4r--4r----4---2-------|------------------------|------------------------|------------------------|
A|--------------------2---|0-----------------------|0-----0-----0---2---2---|------------------------|
E|------------------------|------------------x-2---|------------------------|2-----------------------|
  1   +   2   +   3   +    1   +   2   +   3   +    1   +   2   +   3   +    1   +   2   +   3   +    

[Verse]
G|------------------------|------------------------|------------------------|------------------------|
D|------------------------|------------------------|------------------------|------------------------|
A|----------------2---2---|0-----------------------|0-----0r--------2---2---|------------------------| (x4)
E|2-----2r----------------|------------------------|------------------------|2-----------------------|
  1   +   2   +   3   +    1   +   2   +   3   +    1   +   2   +   3   +    1   +   2   +   3   +    

Sounds change with chorus effect (I think)
G|------------------------|------------------------|------------------------|------------------------|
D|------------------------|------------------------|------------------------|----------------4-----2-|
A|----------------2---2---|0-----------------------|0-----0r--0-0-0-2---2---|------------------2-4---|
E|2-x-x-2r----2-----------|------------------x-0h2-|------------------------|2-----2-----2-----------|
  1   +   2   +   3   +    1   +   2   +   3   +    1   +   2   +   3   +    1   +   2   +   3   +    

G|------------------------|------------------------|------------------------|------------------------|
D|4-4r--4r----4---2-------|------------------------|------------------------|------4r--4r--4-4r------|
A|--------------------2---|0-----------------------|0-----0r--0-0-0-2---2---|------------------------|
E|------------------------|------------------x-0h2-|------------------------|2-----------------------|
  1   +   2   +   3   +    1   +   2   +   3   +    1   +   2   +   3   +    1   +   2   +   3   +    

[Chorus]
G|------------------------|------------------------|------------------------|------------------------|
D|------7-----------------|------7-----------------|------7-----------------|------7-------------7---|
A|5-------5---5r------0---|5r------5---5r------0---|5r------5---5r------0---|5-------5---5r----------|-|
E|------------------------|------------------------|------------------------|------------------------| |
  1   +   2   +   3   +    1   +   2   +   3   +    1   +   2   +   3   +    1   +   2   +   3   +     |
                                                                                                       | (x2)
G|--------------6p4-------|--------------6p4-------|--------------6p4-------|--------------6p4-------| | 
D|----------7---------7---|----------7-------------|----------7---------7---|----------7-------------|-|
A|0-0-0-7r----------------|0-0-0-7r----------------|0-0-0-7r----------------|0-0-0-7r----------------|
E|------------------------|------------------------|------------------------|------------------------|
  1   +   2   +   3   +    1   +   2   +   3   +    1   +   2   +   3   +    1   +   2   +   3   +  

[Instrumental]  
G|------------------------|------------------------|------------------------|------------------------|
D|------------------------|------------------------|------------------------|------------------------|
A|----------------2r--2r--|0-----------------------|0-----0-----0---2---2---|------------------------|
E|------------------------|------------------------|------------------------|2-----------------------|
  1   +   2   +   3   +    1   +   2   +   3   +    1   +   2   +   3   +    1   +   2   +   3   +   
 
G|------------------------|------------------------|------------------------|------------------------|
D|4-----4r----4---2-------|------------------------|------------------------|------------------------|
A|--------------------2---|0-----------------------|0-----0-----0---2---2---|------------------------|
E|------------------------|------------------x-2---|------------------------|2-----------------x-2---|
  1   +   2   +   3   +    1   +   2   +   3   +    1   +   2   +   3   +    1   +   2   +   3   +    

[Outro]
Sounds change again
G|------------------------|------------------------|------------------------|------------------------|
D|------------------------|------------------------|------------------------|----------------4-----2-|
A|----------------2---2---|0-----------------------|0-----0r--0-0-0-2---2---|------------------2-4---|
E|2-x-x-2r----2-----------|------------------x-0h2-|------------------------|2-----2-----2-----------|
  1   +   2   +   3   +    1   +   2   +   3   +    1   +   2   +   3   +    1   +   2   +   3   +    

G|------------------------|------------------------|------------------------|------------------------||
D|4-4r--4r----4---2-------|------------------------|------------------------|------4r--4r--4-4r------||
A|--------------------2---|0-----------------------|0-----0r--0-0-0-2---2---|------------------------||
E|------------------------|------------------x-0h2-|------------------------|2-----------------------||
  1   +   2   +   3   +    1   +   2   +   3   +    1   +   2   +   3   +    1   +   2   +   3   +    
  

************************************

| x   Dead note
| p   Pull-off
| h   Hammer-on
| r   Release

************************************

            
            
Suggest correction
Creating personal tab
Creating personal tab
You can edit any tab online and save it as your Personal.

You can edit, replace or remove any tab part or add personal notes – all changes will be seen only by you.

Personal tabs can be accessed anytime from any device, even offline.
Learn more »
Give kudos to tab author, rate the tab!
1 2 3 4 5
comments
print report bad tab
guest
You may want to rate the tab now too:
select rating
Wanna post a correction for this tab? Suggest correction