Oops, an error
Loading. Please wait.

Summer intro tab

version 1
version 1

Intro

Whole song

235 views 3 this week
1 commentread comment
1 2 3 4 5
3 more votes to show rating
add to favorites
×
Save as Personal and add changes to this tab that will be seen only by you. Learn more ›
×
You can save this tab as Personal to edit and correct it or add notes. All changes will be seen only by you. Learn more »
launch autoscroll
font size
0
reset
how to read this tab
guitar tuner
edit
Autoscroll
slow
fast
+/-
esc
set tempo
stop
Band: Imagine Dragons
Song: Summer
Tabbed by:Nikita Gomez
E-mail: nikitagomez0608@gmail.com

So I saw a lot of tabs that were the same but when I played them with the song it seemed 
like notes were missing.
I decided to take a good listen and tabbed what I play with the song.
Disclaimer this is my first tab if there is anything that's incorrect let me know!


Tuning: Standard

e|---------------------------------------------------------------------------|
B|---------------------------------------------------------------------------|
G|------2-2----7-7---6-6-6-6---6-6--7-7--------------------------------------|
D|---4-4---4/7----7-7---7---7-7----7------------------------------------ ----|
A|---------------------------------------------------------------------------|
E|---------------------------------------------------------------------------|

e|---------------------------------------------------------------------------|
B|---------------------------------------------------------------------------|
G|-----2-2-2 1/2-------------------------------------------------------------|
D|--4-4---4------------------------------------------------------------------|
A|---------------------------------------------------------------------------|
E|---------------------------------------------------------------------------|


************************************

| /   slide up

************************************
Suggest correction
Creating personal tab
Creating personal tab
You can edit any tab online and save it as your Personal.

You can edit, replace or remove any tab part or add personal notes – all changes will be seen only by you.

Personal tabs can be accessed anytime from any device, even offline.
Learn more »
Give kudos to tab author, rate the tab!
1 2 3 4 5
comments
print report bad tab
1 comment total.
0 reply
juanpizapata 10 May 06, 2017 01:54 AM

Thanks broo

guest
You may want to rate the tab now too:
select rating
Wanna post a correction for this tab? Suggest correction