Oops, an error
Loading. Please wait.

The River Bass Tab

58 views 9 this week
no commentswrite comment
1 2 3 4 5
3 more votes to show rating
add to favorites
launch autoscroll
font size
0
reset
guitar tuner
Autoscroll
slow
fast
+/-
esc
set tempo
stop
Help us to improve Ultimate-Guitar.com Take our survey!
×
Author
Difficulty
novice
-------------------------------------------------------------------------------
                            The River - Imagine Dragons
-------------------------------------------------------------------------------

Tuning: standard 4 strings Bass Guitar

Tabbed By : drone89 

-------------------------------------------------------------------------------

[Intro]

[00:00]

G|------------------------------------------------------------------------|
D|------------------------------------------------------------------------|
A|-4-4~----------------4-4~---------------4-4~--------------1-1~----------|
E|------1-1~-2~~----4-------1-1~-2~~-----------1-1~-2~----4-----1-1~-2~~--|


[Verse]

[00:22]

G|------------------------------------------------------------------------|
D|------------------------------------------------------------------------|
A|-4-4~----------------4-4~---------------4-4~--------------1-1~----------|
E|------1-1~-2~~----4-------1-1~-2~~-----------1-1~-2~----4-----1-1~-2~~--|


[Chorus]

[00:44]

G|------------------------------------------------------------------------|
D|------------------------------------------------------------------------|
A|-4-4~----------------4-4~---------------4-4~--------------1-1~----------|
E|------1-1~-2~~----4-------1-1~-2~~-----------1-1~-2~----4-----1-1~-2~~--|

G|-----------------------------------|
D|-----------------------------------|
A|-4-4~----------------4-4~----------|
E|------1-1~-2~~----4-------1-1~-2~~-|


[Verse]

[01:19]

G|------------------------------------------------------------------------|
D|------------------------------------------------------------------------|
A|-4-4~----------------4-4~---------------4-4~--------------1-1~----------|
E|------1-1~-2~~----4-------1-1~-2~~-----------1-1~-2~----4-----1-1~-2~~--|


[Chorus]

[01:41]

G|------------------------------------------------------------------------|
D|------------------------------------------------------------------------|
A|-4-4~----------------4-4~---------------4-4~--------------1-1~----------|
E|------1-1~-2~~----4-------1-1~-2~~-----------1-1~-2~----4-----1-1~-2~~--|


[Bridge]

[2:03]

G|---------------------------------------------|
D|---------------------------------------------|
A|-6~----4~-----------4--6~----4~-----------4--|
E|----6~------2-2-4h6-------6~------2-2-4h6----|

G|------------------------------------------------------------|
D|------------------------------------------------------------|
A|-6~----4~---------------------------------------------------|
E|----6~------2-2---4--4--4--4--4--4--4--4--4-4-4-4-4-4-4-\16-|


[Chorus]

[02:33]

G|------------------------------------------------------------------------|
D|------------------------------------------------------------------------|
A|-4-4~----------------4-4~---------------4-4~--------------1-1~----------|
E|------1-1~-2~~----4-------1-1~-2~~-----------1-1~-2~----4-----1-1~-2~~--|

G|------------------------------------------------------------------------|
D|------------------------------------------------------------------------|
A|-4-4~----------------4-4~---------------4-4~--------------1-1~----------|
E|------1-1~-2~~----4-------1-1~-2~~-----------1-1~-2~----4-----1-1~-2~~--|



************************************

| h  Hammer-on
| \  Slide down
| ~  Vibrato

************************************
Suggest correction
Give kudos to tab author, rate the tab!
1 2 3 4 5
comments
print report bad tab
guest
You may want to rate the tab now too:
select rating
Wanna post a correction for this tab? Suggest correction