Oops, an error
Loading. Please wait.

Thunder tab

version 1
version 1

Whole song

Interactive

Video

  • All chord progressions and a 16th note strumming pattern.
6,499 views 336 this week
no commentswrite comment
1 2 3 4 5
x 4
add to favorites
×
Save as Personal and add changes to this tab that will be seen only by you. Learn more ›
×
You can save this tab as Personal to edit and correct it or add notes. All changes will be seen only by you. Learn more »
launch autoscroll
font size
0
reset
how to read this tab
guitar tuner
edit
Autoscroll
slow
fast
+/-
esc
set tempo
stop
-------------------------------------------------------------------------------
                           Thunder - Imagine Dragons
-------------------------------------------------------------------------------
Tabbed by: Asa Wentworth. 
Email me: asawentworth@yahoo.com

Tuning: Standard

[Chorus]
0:22
e|-------x--------x--------x--------x----------------------------------------|
B|-------x--------x--------x--------x----------------------------------------|
G|-------5--------5--------x--------x----------------------------------------|
D|-------5--------5--------7--------3----------------------------------------| (x2)
A|-------3--------3--------7--------3----------------------------------------|
E|-------x--------x--------5--------1----------------------------------------|

Verse:
doesn't play

[Chorus]
1:14
e|-------x--------x--------x--------x----------------------------------------|
B|-------x--------x--------x--------x----------------------------------------|
G|-------5--------5--------x--------x----------------------------------------|
D|-------5--------5--------7--------3----------------------------------------| (x2)
A|-------3--------3--------7--------3----------------------------------------|
E|-------x--------x--------5--------1----------------------------------------|
You can hear the acoustic strumming but I can't make out the pattern

[Bridge]
1:37
e|---------------------------------------------------------------------------|
B|---12~-12~-12~--10h12h13p12p10\8------17h18-17-15----15h17-15--13-\-12-----|
G|---------------------------------9----------------17-----------------------|
D|---------------------------------------------------------------------------|
A|---------------------------------------------------------------------------|
E|---------------------------------------------------------------------------|

e|---------------------------------------------------------------------------|
B|---12~-12~-12~--10h12h13p12p10\8------17h18-17-15----15-20~----------------|
G|---------------------------------9----------------17-----------------------|
D|---------------------------------------------------------------------------|
A|---------------------------------------------------------------------------|
E|---------------------------------------------------------------------------|
Sounds like vocal manipulation but I'm pretty sure it's the guitar with effects

[Last Chorus]
2:05
e|---------------------------------------------------------------------------|
B|---13----12----10----------13----12----10----------------------------------|
G|---------------------10----------------------10----------------------------|
D|---------------------------------------------------------------------------|
A|---------------------------------------------------------------------------|
E|---------------------------------------------------------------------------|
Alternative pick each note along with the "Oh's" in the background

e|---------------------------------------------------------------------------|
B|---17-17--17-17-15-15--13-13-13--17-17--17-17-15-15--13-13-13--------------|
G|---x--x---x--x--x--x---x--x--x---x--x---x--x--x--x---x--x--x---------------|
D|---14-14--14-14-12-12--10-10-10--14-14--14-14-12-12--10-10-10--------------|
A|---------------------------------------------------------------------------|
E|---------------------------------------------------------------------------|
                                                                               (x2)
e|---------------------------------------------------------------------------|
B|---13-13--13-13-12-12--10-10-5---13-13--13-13-12-12--10-10-5---------------|
G|---x--x---x--x--x--x---x--x--x---x--x---x--x--x--x---x--x--x---------------|
D|---10-10--10-10-9--9---7--7--2---10-10--10-10-9--9---7--7--2---------------|
A|---------------------------------------------------------------------------|
E|---------------------------------------------------------------------------|

************************************

| h   Hammer-on
| p   Pull-off
| /   Slide up
| \   Slide down
| ~   Vibrato
| x   Dead-note

************************************

            
            
Suggest correction
Creating personal tab
Creating personal tab
You can edit any tab online and save it as your Personal.

You can edit, replace or remove any tab part or add personal notes – all changes will be seen only by you.

Personal tabs can be accessed anytime from any device, even offline.
Learn more »
comments
print report bad tab
guest
You may want to rate the tab now too:
select rating
Wanna post a correction for this tab? Suggest correction