Oops, an error
Loading. Please wait.

Underdog Chords

version 1
version 1

Whole song

14,285 views 1 this week
2 commentsread comments
1 2 3 4 5
x 26
add to favorites
launch autoscroll
font size
0
reset
transpose
0
reset
display chords
guitar tuner
Autoscroll
slow
fast
+/-
esc
set tempo
stop
Help us to improve Ultimate-Guitar.com Take our survey!
×
Capo
5th fret
Underdog tab

(the tab would be easier with a Capo on 5, but the chords are with no Capo)

e|-------------75--75-----------------75--10-7-5--------------------------|
B|-88855-------8---8--888555-------8--------------------------------------|
G|---------77----------------------77-------------------------------------|    x2
D|------------------------------------------------------------------------|
A|------------------------------------------------------------------------|
E|------------------------------------------------------------------------|


G                     D
Early morning take me over
               Em
Father, father, father
                C
Take me to the top
G                       D
Early morning wake me up
               Em
Father, father, father
            C
This is not enough

Chorus x2
G                D
Hey, that sounds like my luck
          Em
I get the short end of it
     C
Oh I love to be
                G
I love to be the underdog


G           D
Early evening settle down
                Em
Father, father, father
              C
Who am I to blame?
G               D
Early evening hush me over
                Em
Father, father, father
                  C
Are we just the same?



YS Tabs
Suggest correction
comments
print report bad tab
2 comments total. show 1 bad comment
0 reply
rudo.jgm 10 Dec 25, 2014 02:12 PM

The string "B" it's wrong:

e|-------------75--75---------------75--10-7-5-------------------------------|
B|-88855---------8---8--88855---------8--------------------------------------|
G|---------77-------------------77-------------------------------------------|
D|---------------------------------------------------------------------------|
A|---------------------------------------------------------------------------|
E|---------------------------------------------------------------------------|

guest
You may want to rate the tab now too:
select rating
Wanna post a correction for this tab? Suggest correction