Oops, an error
Loading. Please wait.

Yesterday chords

2,671 views 243 this week
3 commentsread comments
1 2 3 4 5
x 11
add to favorites
×
Save as Personal and add changes to this tab that will be seen only by you. Learn more ›
×
You can save this tab as Personal to edit and correct it or add notes. All changes will be seen only by you. Learn more »
launch autoscroll
font size
0
reset
transpose
0
reset
display chords
guitar tuner
edit
Autoscroll
slow
fast
+/-
esc
set tempo
stop
About this tab version
Includes chords, suggested fingerings and guitar solo. Was this info helpful? Yes No
Strumming Is this strumming pattern correct? Yes No
Whole Song 52 bpm
1
 
 
2
 
 
3
 
 
4
 
 
Listen
Imagine Dragons
"Yesterday"

Standard tuning.

   E    A 
e|(0)--(5)---|
B|-0----5----|
G|-1----6----| Fingerings to simulate piano part.
D|-2----7----| Optional notes in parentheses.
A|-----------|
E|-0----5----|


[Chorus]
E
Here's to my future
             A
Here's to my yesterday
E
  Here's to change
                 A
Oh, here's to my yesterday
E
  No tomorrow
          A
Without a yesterday
E
Here's to my future
           N.C.
Goodbye to yesterday


[Verse 1]
E                                   A
All these years I've been searching
E                          A
For who I'm supposed to be
E                               A
All this time I've been wasting
E                                 A
'Cause I was right in front of me


[Pre-Chorus]
E                                A
Oh, it's a crooked old tradition
E                       A
By a masterful magician
E                                    A
But in the all this trouble I've met
E                                   A
I haven't got one single regret, no


[Chorus]
E
Here's to my future
             A
Here's to my yesterday
E
  Here's to change
                 A
Oh, here's to my yesterday
E
  No tomorrow
          A
Without a yesterday
E
Here's to my future
           N.C.
Goodbye to yesterday
E  A
   Yesterday
E  A


[Verse 2]
          E                        A
Oh, I'm a hopeless crash collision
E                            A
'Cause I'm a hostage to my pride
E                  A
By my own volition
            E                           
I've been a saint, i've been the truth, I've been the lie


[Pre-Chorus]
  E                                                        A
e|0-----7p4p0-7p4p0-|0-----7p4p0-7p4p0-|0-----7p4p0-7p4p0/|9~----9~----9~----|
B|------------------|------------------|------------------|------------------|
G|------------------|------------------|------------------|------------------|
D|------------------|------------------|------------------|------------------|
A|------------------|------------------|------------------|------------------|
E|------------------|------------------|------------------|------------------|

E                                A
Oh, it's a crooked old tradition
E                       A
By a masterful magician
E                                    A
But in the all this trouble I've met
E                                 A
I haven't got one single regret, no


[Chorus]
E
Here's to my future
             A
Here's to my yesterday
E
  Here's to change
                 A
Oh, here's to my yesterday
E
  No tomorrow
          A
Without a yesterday
E
Here's to my future
           N.C.
Goodbye to yesterday
E  A
   Yesterday
E  A


[Solo]
  E                                                        A
e|------------------|------------------|------------------|------------------|
B|------12----9~----|------9-----------|------------------|------------------|
G|----------9-------|------------9~----|------9-----------|------------------|
D|------------------|----------9-------|------------9~----|------------------|
A|------------------|------------------|----------11------|------------------|
E|------------------|------------------|------------------|------------------|
  E                                                        A
e|------------------|------------------|------------------|------------------|
B|------12----9~----|------9-----------|-----------------/|14~---14~---14~---|
G|----------9-------|------------9~----|------9-----------|------------------|
D|------------------|----------9-------|------------9~----|------------------|
A|------------------|------------------|----------11------|------------------|
E|------------------|------------------|------------------|------------------|
  E                                                        A
e|-----/12-11-9~----|------9-----------|------------------|------9b----------|
B|------------------|---------12-9~----|------9-----------|---------12~------|
G|------------------|------------------|---------11-9~----|9/-11-------------|
D|------------------|------------------|------------------|------------------|
A|------------------|------------------|------------------|------------------|
E|------------------|------------------|------------------|------------------|
  E                                                                 N.C.   
e|-------------14~--|12~---------------|19p16----17p16----19p16----|19b21-19b21-19~---|
B|------------------|----------------17|------17-------17-------17-|------------------|
G|------9/11h13-----|----------16h18---|---------------------------|------------------|
D|------------------|------------------|---------------------------|------------------|
A|------------------|------------------|---------------------------|------------------|
E|------------------|------------------|---------------------------|------------------|


[Bridge]
E                                  A
  A new day you can go, you can do anything you wanna
E                                     A
  It's your play, swing low, go high, anywhere you wanna
E                                           A
  You can reach for the moon, anywhere your dreams can take you
E                       
  Go astray, fade away, just leave it to-


[Chorus]
E
Here's to my future
             A
Here's to my yesterday
E
  Here's to change
                 A
Oh, here's to my yesterday
E
  No tomorrow
          A
Without a yesterday
E
Here's to my future
           N.C.
Goodbye to yesterday
E  A
   Yesterday
E  A



***********************************

| /   Slide up
| h   Hammer-on
| p   Pull-off
| ~   Vibrato
| x   Dead note
| b   Slight bend

***********************************
Suggest correction
Creating personal tab
Creating personal tab
You can edit any tab online and save it as your Personal.

You can edit, replace or remove any tab part or add personal notes – all changes will be seen only by you.

Personal tabs can be accessed anytime from any device, even offline.
Learn more »
comments
print report bad tab
3 comments total.
0 reply
12thFretTunes 11 Jun 28, 2017 04:30 AM

Great Tab Keep it up!

0 reply
josenava6254 10 Jul 01, 2017 07:38 PM

whats the strum pattern?

guest
You may want to rate the tab now too:
select rating
Wanna post a correction for this tab? Suggest correction