Oops, an error
Loading. Please wait.

Akap Chords

version 1
version 1

Whole song

Interactive

231,518 views 708 this week
15 commentsread comments
1 2 3 4 5
excellent!
x 26
add to favorites
launch autoscroll
font size
0
reset
transpose
0
reset
simplify chords
display chords
guitar tuner
Tab Pro tools
  • play this tab
  • loop segment
  • change instrument
  • show fretboard
  • metronome
×
Best way to learn
"Akap"
Autoscroll
slow
fast
+/-
esc
set tempo
stop
Contributor
Difficulty
novice
title       : akap
artist      : imago
tabber      : Angelino Cayabyab Estandian Jr. [aka Ace]
contact no  : 09163981421
email       : acetangent@yahoo.com
tuning      : EADGBe

chords used :
         A      A/G#     F#m     G#m    D      E
e|-------x-------x--------x-------x-----x------x-----|
b|-------x-------x--------x-------x-----x------x-----|
g|-------x-------x--------x-------x-----7------9-----|
d|-------7-------7--------4-------6-----7------9-----| 
a|-------7-------7--------4-------6-----5------7-----|  
e|-------5-------4--------2-------5-----x------x-----|


intro:

rythm guitar [power chords]:
    A        A/G#      F#m        G#m  A
e|----------------------------------------------------------------|
B|----------------------------------------------------------------| 
G|----------------------------------------------------------------|
D|--7---------7---------4-----------6--5--------------------------|
A|--7-strum---7-strum---4-strum-----6--7-strum---repeat the cycle-| 
E|--5---------4---------2-----------4--7--------------------------|


Verse 1 
A
Nagtatanong...
A/G#            F#m                D
Bakit mahirap sumabay sa agos ng iyong ulo?
A
Nagtataka...
A/G#             F#m               D               E
Simple lang naman sana ang buhay, ba't ika'y lumingon?

Chorus 
A               F#m          D   
Sabihin sakin lahat ng lihim mo
         A
Iingatan ko
A             F#m          D
Ibaling sakin ang problema mo
           A
Kakayanin ko...



Bridge
E		   A
Sasamahan ka sa tamis 
E		    A
Sasamahan ka sa dilim
E		          A 
Sasamahan ka hanggang langit
E		   A
Sasamahan ka sa tamis
E		   A
Sasamahan ka sa pait 
E		    A
Sasamahan ka sa dilim
E		           A 
Sasamahan ka hanggang langit
E	    A
Sasamahan ka...
E	A
Oohhh...oohhh...
E	 A
Oooohhh...oohhh...
E	A
Oohhohh....



outro:
      A       A        F#m       F#m
e|-----------------------------------|
B|-----------------------------------|
G|-----------------------------------|.....accompanied by drums.....
D|--7777-xxx-7777-xxx--4444-xxx-4444-|
A|--7777-xxx-7777-xxx--4444-xxx-4444-|
E|--5555-xxx-5555-xxx--2222-xxx-2222-|

   B\C#m     D        D\E  D   C#m   A 
e|--------------------------------------|
B|--------------------------------------| x -mute note
G|--4\6----7777xxxx7777\9--7----6-------|   
D|--4\6----7777xxxx7777\9--7----6----7--|
A|--2\4----5555xxxx5555\7--5----4----7--|
E|-----------------------------------5--|

figure out the strumming pattern for the outro by listening to the cd...



sama nyo po ako sa klite live....jejejeje....
comments or suggestions? post em at 
or txt me at 09163981421....
comments
print report bad tab
15 comments total. Showing first comments.
0 reply
loreine09 wrote on September 27 2005, 05:21 am

wrong lyrics

0 reply
pjbdomingo wrote on October 8 2005, 05:56 pm

mali yung G#m mo.
dapat ganito
e--------------------------------------------------------
B--------------------------------------------------------
G--------------------------------------------------------
D--------------------------------------------------------
A--------7---stum---7--strum---4-strum-------------------
E--------5----------4----------4-------------------------

diba mas maganda pakinggan?

0 reply
pjbdomingo wrote on October 14 2005, 12:43 am

mali pala sorry


yung huli dapat
a----------------------4-----------
e----------------------2-----------
sorry po

^_^

I want to post or [tab]
guest
You may want to rate the tab now too:
select rating
Please do not post tabs as comments. Select "correction" instead!