Oops, an error
Loading. Please wait.

Akap Chords

version 1
version 1

Whole song

Interactive

261,497 views 795 this week
15 commentsread comments
1 2 3 4 5
x 29
add to favorites
launch autoscroll
font size
0
reset
transpose
0
reset
simplify chords
display chords
guitar tuner
Autoscroll
slow
fast
+/-
esc
set tempo
stop
Help us to improve Ultimate-Guitar.com Take our survey!
×
Author
Difficulty
novice
title       : akap
artist      : imago
tabber      : Angelino Cayabyab Estandian Jr. [aka Ace]
contact no  : 09163981421
email       : acetangent@yahoo.com
tuning      : EADGBe


[chords used]

         A      A/G#     F#m     G#m    D      E
e|-------x-------x--------x-------x-----x------x-----|
b|-------x-------x--------x-------x-----x------x-----|
g|-------x-------x--------x-------x-----7------9-----|
d|-------7-------7--------4-------6-----7------9-----| 
a|-------7-------7--------4-------6-----5------7-----|  
e|-------5-------4--------2-------5-----x------x-----|


[intro]

Rythm guitar power chords
    A        A/G#      F#m        G#m  A
e|----------------------------------------------------------------|
B|----------------------------------------------------------------| 
G|----------------------------------------------------------------|
D|--7---------7---------4-----------6--5--------------------------|
A|--7-strum---7-strum---4-strum-----6--7-strum---repeat the cycle-| 
E|--5---------4---------2-----------4--7--------------------------|


[Verse 1]

A
Nagtatanong...
A/G#            F#m                D
Bakit mahirap sumabay sa agos ng iyong ulo?
A
Nagtataka...
A/G#             F#m               D               E
Simple lang naman sana ang buhay, ba't ika'y lumingon?


[Chorus]

A               F#m          D   
Sabihin sakin lahat ng lihim mo
         A
Iingatan ko
A             F#m          D
Ibaling sakin ang problema mo
           A
Kakayanin ko...




[Bridge]

E                  A
Sasamahan ka sa tamis 
E                   A
Sasamahan ka sa dilim
E                         A 
Sasamahan ka hanggang langit
E                  A
Sasamahan ka sa tamis
E                  A
Sasamahan ka sa pait 
E                   A
Sasamahan ka sa dilim
E                          A 
Sasamahan ka hanggang langit
E           A
Sasamahan ka...
E       A
Oohhh...oohhh...
E        A
Oooohhh...oohhh...
E       A
Oohhohh....



[outro]
    A             A              F#m           F#m
e|-----------------------------------------------------|
B|-----------------------------------------------------|
G|-----------------------------------------------------|.....accompanied by drums.....
D|--7-7-7-7-x-x-x-7-7-7-7-x-x-x--4-4-4-4-x-x-x-4-4-4-4-|
A|--7-7-7-7-x-x-x-7-7-7-7-x-x-x--4-4-4-4-x-x-x-4-4-4-4-|
E|--5-5-5-5-x-x-x-5-5-5-5-x-x-x--2-2-2-2-x-x-x-2-2-2-2-|

   B\C#m   D               D               C#m  A 
e|-------------------------------------------------|
B|-------------------------------------------------|
G|--4\6----7-7-7-7-x-x-x-x-7-7-7-7\9--7----6-------|   
D|--4\6----7-7-7-7-x-x-x-x-7-7-7-7\9--7----6----7--|
A|--2\4----5-5-5-5-x-x-x-x-5-5-5-5\7--5----4----7--|
E|----------------------------------------------5--|

figure out the strumming pattern for the outro by listening to the cd...



*****************************

x  - Dead note
\  - Slide down

*****************************

sama nyo po ako sa klite live....jejejeje....
comments or suggestions? post em at 
or txt me at 09163981421....
Suggest correction
comments
print report bad tab
15 comments total. Showing first comments.
0 reply
loreine09 10 Sep 27, 2005 05:21 AM

wrong lyrics

0 reply
pjbdomingo 480 Oct 08, 2005 05:56 PM

mali yung G#m mo.
dapat ganito
e--------------------------------------------------------
B--------------------------------------------------------
G--------------------------------------------------------
D--------------------------------------------------------
A--------7---stum---7--strum---4-strum-------------------
E--------5----------4----------4-------------------------

diba mas maganda pakinggan?

0 reply
pjbdomingo 480 Oct 14, 2005 12:43 AM

mali pala sorry


yung huli dapat
a----------------------4-----------
e----------------------2-----------
sorry po

^_^

guest
You may want to rate the tab now too:
select rating
Wanna post a correction for this tab? Suggest correction