Oops, an error
Loading. Please wait.

Akap bass

version 2
version 2

Whole song

Interactive

by Imago
982 views 15 this week
1 commentread comment
1 2 3 4 5
x 3
add to favorites
×
Save as Personal and add changes to this tab that will be seen only by you. Learn more ›
×
You can save this tab as Personal to edit and correct it or add notes. All changes will be seen only by you. Learn more »
launch autoscroll
font size
0
reset
guitar tuner
edit
Autoscroll
slow
fast
+/-
esc
set tempo
stop
-------------------------------------------------------------------------------------------------
                                              Akap - Imago
-------------------------------------------------------------------------------------------------

Tabbed by: Januel Van Christian 
E-mail: januelvanchristian@yahoo.com/gmail.com

Tuning: standard 

TAKE NOTE 
( 2x ung intro first set is puro guitar then 4th chord papasok ung bass then with drums na.)


Intro :
   G#-A, A-G#, F#-F#, G#-A                   -- Up here is only the chords patterns
G|--------------------------------------------|
D|--------------------------------------------|
A|--------------------------------------------|
E|-4-5-5--5-5--4-0--4-0--2-2--2-2--4-5--------|

Verse :
   A  A    G#    G#     F#       D       (2x)  E    E
G|-------------------------------------------|----------|
D|-------------2-----2-----------------------|----------|
A|----------2h4---2h4-------------5-5-5-5----|-7-7--7-7-|
E|-5--5-5--4-----4----4-2-2--2-2-/-------7---|----------|

Chorus :
   A    A     F#    F#   D   D    A              A     A      F#   F#   D    D   A  
G|------------------------------------------------------------------------------------------|
D|--------------------------------------7/9-7-6h7-------------------------------------------|
A|-----------------------5-5--5-5----------------7----------------------5-5--5-5------------|
E|-5-5--5-5--4-2-2--2-2-----------5-5--5----------5-5--5-5--4-2-2--2-2-----------5-5--5-5-7-|

Verse 2 :
   A   A     G#    G#     F#        D         A                     G#   G# 
G|-------------------------------------------|------------------- --------------|
D|---------------2-----2---------------------|--------7/9-77-6-7-6------2----2--|
A|------------2h4---2h4-------------5-5-5-5--|-----5h7--------7---7--2h4--2h4---|
E|-5-5--5-5--4-----4----4-2-2--2-2-/-------7-|-5-5-----------------54----4----4-|
   F#   F#   D       E
G|-------------------------------------|
D|-------------------------------------|
A|-----------5-5-5-5--7-7-7/9-7-5------|
E|-2-2--2-2-/------------7-------7-----|

Chorus :
   A    A     F#    F#  D       D      A          A       (2x)
G|------------------------------------------------------------------|         Follow 
D|------------------------------------------------------------------|           the 
A|----------------------55---5\/55---5\-----------------------------| ( 2x ) Drum beat
E|-5-5--5-5--4-2-2--2-2---5h7-----5h7--/55-5h7-5\/55-5h7-5\/--------|

Bridge :
     E       E    A   A        ( 4x )  E        E      A     A     ( 4x )
G|-------9------9--------------------|---9/11-9--9/11-9------------------|
D|------9------9----7---7-6----------|--9-------9--------7/9-7--7/-9-----|
A|----77-----77----7---7---7\--------|-7-------7--------7------7---------| 
E|-7h9----7h9----55--55------/-------|-----------------5------5----------|

Repeat :    --- chorus --- Chorus w/out Vocals ---

Extro :
    A          A       B       F#        F#      B-C#-D,   E-D-Db-A          
G|--------------------------------------------------------7------------------|
D|---------7---------------------------------------------7-------------------|
A|------------------------------------------------2-4-5-5----5-5-5-7-5-4-----|
E|-4-55-4/5---4-55-4-55-77-54--22-0-2/4-2--2-2-2-------------------------5---|


                         
                           ---   THE END  ---

| the upper chords is just a pattern for guide.
| /  slide up
| \  slide down
| h  hammer-on
| p  pull-off
| ~  vibrato
| +  harmonic
| x  Mute note
===============================================================================
 Ang hirap pakinggan ng bass dito sa kantang ito
kailangan mong maging sensitive di lang sa pandinig
dapat pakiramdaman mo rin ung bass tapos isabay mo sya sa beat ng drums :)


 this is one of my covers, hope it helps.. :) 
please kindly rate :) thanks ..  keep it up !!!


            
            
Suggest correction
Creating personal tab
Creating personal tab
You can edit any tab online and save it as your Personal.

You can edit, replace or remove any tab part or add personal notes – all changes will be seen only by you.

Personal tabs can be accessed anytime from any device, even offline.
Learn more »
Give kudos to tab author, rate the tab!
1 2 3 4 5
comments
print report bad tab
1 comment total.
0 reply
tinhdovan15274745 10 Dec 29, 2015 05:21 AM

Galing mo kuya :)

guest
You may want to rate the tab now too:
select rating
Wanna post a correction for this tab? Suggest correction