Oops, an error
Loading. Please wait.

Sundo Tab

version 1
version 1

Whole song

32,390 views 33 this week
2 commentsread comments
1 2 3 4 5
excellent!
x 10
add to favorites
launch autoscroll
font size
0
reset
how to read this tab
guitar tuner
Tab Pro tools
  • play this tab
  • loop segment
  • change instrument
  • show fretboard
  • metronome
×
Best way to learn
"Sundo"
Autoscroll
slow
fast
+/-
esc
set tempo
stop
Contributor
Song:Sundo
Album:Blush
Artist:Imago
Date Tabbed:March,2007
Guitar Tabber:Ryan Manongdo/17/m/Montalban Rizal
              no_falter0x@yahoo.com(Friendster&YM)
 
For your questions or suggestions,just post in friendster comment,PM or mail me.

Gtr.Legends:
~ - let it ring
x - dead string

Gtr.Tuning:Standard(Normal)

Intro:
Gtr.1
e|-0~--0~--0~-2~---|
B|-2~--2~--2~-3~---|
G|-2~--1~--0~-2~---| 2x
D|---------2~------|
A|-----------------|
E|-----------------|

Gtr.2
e|---0------0---------0------0---------0------0---------0------0----0--------
B|-----9------9---------9------9---------8------8---------7-----------7------
G|-9------9-----9---9------9-----9---9------9-----9---9-----9-----9------9---
D|---------------------------------------------------------------------------
A|---------------------------------------------------------------------------
E|---------------------------------------------------------------------------

---0------0---------0------0---------0------0---------0-----------|
-----9------9---------9------9---------8------8---------7----7~---|
-9------9-----9---9------9-----9---9------9-----9---9-----9-------|
------------------------------------------------------------------|
------------------------------------------------------------------|
------------------------------------------------------------------|

Verse 1:Kaytagal kong...
Gtr.1(Clean Gtr.)
e|-00000--00000-00000--22222~---|
B|-22222--22222-22222--33333~---|      
G|-22222--11111-xxxxx--22222~---| 2x
D|--------------22222-----------|
A|------------------------------|
E|------------------------------|

Gtr.2(Chorus Effect)
e|-0~-----0~----0~-----2~---|
B|-2~-----2~----2~-----3~---|
G|-2~-----1~----x------2~---| 2x
D|--------------2~----------|
A|--------------------------|
E|--------------------------|

Pre-Chorus:Sinusundo...
Gtr.1
e|--------------------|
B|--------------------|
G|-1111111111111111---|
D|-2222222222222222---|
A|-2222222222222222---|
E|-0000000000000000---|

Gtr.2
e|--------------------|
B|--------------------|
G|-9999999999999999---|
D|-9999999999999999---|
A|-7777777777777777---|
E|--------------------|

Chorus:Asahan mong...
Gtr.1
e|-00000-----------2222---|
B|-22222-3333-3333-3333---|
G|-22222-0000-4444-2222---| 2x
D|-------2222-4444--------|
A|-------2222-2222--------|
E|-------0000-------------|

Gtr.2
e|------------------------|
B|------------------------|
G|------------------------|
D|-77777-9999-9999-7777---|
A|-77777-7777-9999-5555---|
E|-55555------7777--------|

Pre-Verse 2:
Gtr.1
e|-00000--00000---|
B|-22222--22222---|
G|-22222--11111---| 2x
D|----------------|
A|----------------|
E|----------------|

Gtr.2
e|---0------0---------0------0--------|
B|-----9------9---------9------9------|
G|-9------9-----9---9------9-----9----| Listen to the song for timing...
D|------------------------------------|
A|------------------------------------|
E|------------------------------------|

Verse 2:Sa akin mo...
Play Verse 1

Repeat Pre-Chorus:

Repeat Chorus:

Last Chord:
e|------|
B|-2~---|
G|-4~---|
D|-4~---|
A|-2~---|
E|------|

End...


Sundo Lyrics:

Verse 1
Kay tagal kong sinusuyod
ang buong mundo
Para hanapin,
para hanapin ka
Nilibot ang distrito
ng iyong lumbay
Pupulutin, pupulutin ka

Pre-Chorus:
Sinusundo kita,
Sinusundo...

Chorus:
Asahan mong mula ngayon
pag-ibig ko?y sayo
Asahan mong mula ngayon
pag-ibig ko?y sayo

verse 2:
Sa akin mo isabit
ang iyong lumbay
Di kukulangin
ang ibibigay
Isuko ang kaba
tuluyan kang bumitaw
Ika?y manalig
Manalig ka..

Repeat Pre-Chorus:

Long Chorus:
Asahan mong mula ngayon
pag-ibig ko?y sayo
Asahan mong mula ngayon
pag-ibig ko?y sayo

Handa na sa liwanag mo
Sinuyod ang buong mundo
Maghihintay sayo?ng sundo
comments
print report bad tab
2 comments total.
0 reply
elvin_guitar wrote on April 4 2007, 06:20 am

dude!!!! 5 stars.. lupet mo talaga kahit kailan... hehehe.... kindly rate my PASAN VER3 tabs... tnx

0 reply
kram_1234 wrote on June 8 2007, 10:19 am

Sowee p0h ah... update ko n lng lead sa adlib.... cenxa n tlga.. hope u like it. pkirate mo to pls......
[01/30/2007 - 04:39 am] by guitar_elvin : |
Eto p0h ung Lead part sa Adlib.... dto ko n lng p0h ilgay kc di ko p0h alm kung pnu i-edit ung tabs eh.... ung chords p0h pla sa REFRAIN ay: F#m-B-F#m-B-F#m-B-A-B....

Guitar 1:
e|------------------------------------------|
B|------------------------------------------|
G|--99999999--44444444--66666666------------|
D|--99999999--44444444--66666666--77777777--| 2x
A|--77777777--22222222--44444444--77777777--|
E|--------------------------------55555555--|

Guitar 2:
e|--------------------------------------------9-9/12~~--|
B|---------------121212-111111-101010-999-888-----------|
G|--------7-9/12~---------------------------------------|
D|----7h9-----------------------------------------------|
A|-7h9--------------------------------------------------|
E|------------------------------------------------------|

e|--------------------------------------------------------
B|--------------------------------------------------------
G|-13--14--15--16--17--17----17-16--17-16--17-16--17-16--
D|---12--12--13--14--15-----16-----16-----16-----16-------
A|--------------------------------------------------------
E|--------------------------------------------------------

Continuation........
--17-16--17-16--17-16--17-16---------------------------------
-16-----16-----16-----16-----161616-151515-14-14/15-14-0-14--
-------------------------------------------------------------
-------------------------------------------------------------
-------------------------------------------------------------
-------------------------------------------------------------

Continuation........
-----------------------------------------|
-121212-111111-101010-999-888-77-66-55~--|
-----------------------------------------|
-----------------------------------------|
-----------------------------------------|
-----------------------------------------|
[02/05/2007 - 05:30 am] by penelope_024 : |
elvin. ako unang mag-cocomment haha.
pwede bang sa friendster na lang?

so anyway. ayon sa kuya ko: a la proffesional daw gawa mo.
eeh. laki ulo.

so. ayun.. di ko pa yan naiintindihan. pero pagnaturuan mo na ako mag-gitara malalaman ko na yan :D

pero. ikaw nag-introduce sa akin ng song na yan.

thanks. such a wonderful song.

next mo naman ang A promise. ;)
[02/13/2007 - 03:12 am] by itchybulate : |
oi elvin. elvin vous êtes si injuste
[02/13/2007 - 03:13 am] by itchybulate : |
elvin vous êtes si injuste... ikaw ha. pasalamat ka malakas ka sa akin. :c..

anyways.. happy valentines day na lang.. di ka man lang marunong mag thank you. :c
[02/13/2007 - 05:40 am] by elvin_guitar : |
thanks p0 sa pgrrate!!!!!
[02/15/2007 - 06:19 am] by janires_007 : |
ANG ganda ,, ponyemas naman .......ito ang da best sa lahat ,,,,,,,,,,,, ganda pa ng song,,,,, cguro ang cute, matalino, mabait, at magaling ang gumawa ni2 !!!!!!!!! guys one of a kind @@@@@@@@@@ dont let this moment pass away , IRATE NIO I2 AT GWABEHH ,, GALING NI ELVIN KUNG SINO MAN UNG ,,, A BASTA GALING NIA,,, SHET TALAGA !!!!!!!,,,,da besttttttttttttttttt !!!!
[02/15/2007 - 06:23 am] by elvin_guitar : |
thnx... adik ka.... hehhehe.........
[02/24/2007 - 12:33 am] by caycie220727 : |
nice gling.asa p.elvin p.pti s pgtulog ktabi gitara.cge.rate nio.
[02/27/2007 - 06:29 am] by repax : |
mga tanga!!! mali ang adlib nya.. mga bingi b kau... meron syang pull dapat... eh wala dyan...
[02/27/2007 - 06:31 am] by repax : |
e2 p ang isa.. ung intro.. nag start sya s E.. eh bkit s F# galing?
[03/01/2007 - 06:08 am] by elvin_guitar : |
kanya-kanyang tabs yan
[03/01/2007 - 08:31 am] by wakoko323 : |
psSst....bro mali tlga ung intro mo... ung adlib mo mejo may palya pa...
[03/02/2007 - 07:31 am] by TOKMOL13 : |
Guitar 2:
e|----7-----------|----7-----------|----7----------------------------|
B|-5-5-7-5-7h9-7-|-5-5-7-5-7h9-7---|-5-5-7-5-7h9-7-9/10-9-9/10-9-7\5-|
G|----------------|----------------|---------------------------------|
D|----------------|----------------|---------------------------------|
A|----------------|----------------|---------------------------------|
E|----------------|----------------|---------------------------------|

e|----7-----------|----7-----------|----7----------------------------|
B|-5-5-7-5-7h9-7--|-5-5-7-5-7h9-7--|-5-5-7-5-7h9-7-9/10-9-9/12~~-----|
G|----------------|----------------|---------------------------------|
D|----------------|----------------|---------------------------------|
A|----------------|----------------|---------------------------------|
E|----------------|----------------|--------------------------------------|
[03/02/2007 - 07:32 am] by TOKMOL13 : |
yan ata ung intro nia tol/... maxadong mataas ung sau..
[03/03/2007 - 01:13 am] by elvin_guitar : |
dude tokmol13.. thnaks.. pcorrect ng adlib ko
[03/05/2007 - 12:47 am] by jrmarcellana : |
i2 ung gamit na chord sa live na video namin sa rhytym ng callalily sa bar... open string sa lower e at B strin

I want to post or [tab]
guest
You may want to rate the tab now too:
select rating
Please do not post tabs as comments. Select "correction" instead!