Oops, an error
Loading. Please wait.

Es Hoy Tab

7 views 1 this week
no commentswrite comment
1 2 3 4 5
3 more votes to show rating
add to favorites
launch autoscroll
font size
0
reset
how to read this tab
guitar tuner
Autoscroll
slow
fast
+/-
esc
set tempo
stop
Help us to improve Ultimate-Guitar.com Take our survey!
×
Intro / Estrofas / Momento de silencio

|----6---6-----6----6-------11--11-------
|----8---8-----8----8-------13--13-------
|----8---8-----8----8-------13--13-------
|----------------------------------------
|----------------------------------------
|----------------------------------------

Cambio 1 ('tu mente escapar...')

|---4-----11-----------
|---6-----13-----------
|---6-----13-----------
|----------------------
|----------------------
|----------------------

Cambio 2 ('Nunca ser debil...')

|---6---11----6----11--
|---8---13----8----13--
|---8---13----8----13--
|----------------------
|----------------------
|----------------------

CORO

|---6---11---4---11----
|---8---13---6---13----
|---8---13---6---13----
|----------------------
|----------------------
|----------------------


LETRA

Es hoy!!...

No hay que controlar...
No hay que comportarse...
Tu sigue con el rock...


Tu mente escapar...
Millas y más millas mas...
Porque estas libre veras...

es hoy!

No tienes que ser pronto... es hoy!
A todo pulmon... es hoy!
Si hay que llegar alto... es hoy!
No hay que esperar...


Nunca ser debil...
No renunciar...
Sal con más fuerza ¿qué te puede pasar?... Es hoy!!!


Tienes la libertad... wouu!
El mundo esta en tus manos... wouu!
Hasta no poder mas... wouu!

nanananana... es hoy!!

La noche es libertad... wouu!
tienes que irte de todo... wouu!
y no poder más... wouu!

nanananana... nanananana

es hoy!!!


Segundo no hay que ser...
No quiero caminar...
Queriendo demostrar...

Y darme cuenta que...
No eh vivido nada mas...
Y es tarde ya regresar...

Nunca ser debil...
No renunciar...
Tienes que probarlo ¿que te puede pasar?... es hoy!

CORO

Tienes la libertad... wouu!
El mundo esta en tus manos... wouu!
Hasta no poder mas...  wouu!

nanananana... es hoy!

La noche es libertad... wouu!
Tienes que irte de todo...wouu!
y no poder mas...

nananana... es hoy!

Es hora de empezar... wouu!
¿que te puede pasar?... es hoy!
No debes renunciar... wouu!
Se original... es hoy!

Si tu quieres ir lejos...
Si tu cuerpo es joven...
Si te sientes entero...

Es hoy!!

Si tu eres más hagil... es hoy!
si tu quieres guitarlo... es hoy!
Si tu quieres di algo... es hoy!
Si tu quieres hoy...

Nunca ser debil...
No renunciar...
Tienes que probarlo ¿que te puede pasar?... es hoy!

Tienes la libertad... wouu!
El mundo esta en tus manos... wouu!
Hasta no poder mas...  wouu!

nanananana... es hoy!

La noche es libertad... wouu!
tienes que irte de todo... wouu!
y no poder mas...

nananana... es hoy!

Es hora de empezar... wouu!
¿que te puede pasar?... nananana es hoy!
No debes renunciar... wouu!
Se original... es hoy!

Es hoy!!

---------39032----
Suggest correction
Give kudos to tab author, rate the tab!
1 2 3 4 5
comments
print report bad tab
guest
You may want to rate the tab now too:
select rating
Wanna post a correction for this tab? Suggest correction