Oops, an error
Loading. Please wait.

Human chords

79 views 3 this week
no commentswrite comment
1 2 3 4 5
3 more votes to show rating
add to favorites
×
Save as Personal and add changes to this tab that will be seen only by you. Learn more ›
×
You can save this tab as Personal to edit and correct it or add notes. All changes will be seen only by you. Learn more »
launch autoscroll
font size
0
reset
transpose
0
reset
simplify chords
display chords
guitar tuner
edit
Autoscroll
slow
fast
+/-
esc
set tempo
stop
About this tab version
Easy song to learn and to play by listening to it, I hope you can understand my chorus notations, but if not, it's easy to figure out. All the Bm can also be played as Bm11, Bm is more correct, but Bm11 fits as good and it gives it a smoother feel if you are playing alone. Also, sorry if I misnamed any chords, I'm not really good at it. Was this info helpful? Yes No
Strumming
There is no strumming pattern for this song yet. and get +5 IQ
   Bm11:   e|0
(Optional) B|3
           G|2
           D|4
           A|2
           E|x

[Intro]
(Fig. 1)
   A                         Dsus2/A
G|-0----------|-0---0---0--|-0----------|-0---0---0--|
B|-2----------|-3---2---0--|-3----------|-3---2---0--|
G|-2----------|-2---2---2--|-2----------|-2---2---2--|
D|-2----------|-2---2---2--|-0----------|-0---0---0--|
A|-0----------|-0---0---0--|-0----------|-0---0---0--|
E|------------|------------|------------|------------|

[Verse]
A                         Dsus2/A
I'm a fallen angel, don't wanna be somebody's saint
     E                        A
I've tarnished my halo and my specialty is to take
      A                          Dsus2/A
But I want you to think of me as better than the rest
      E                            A
I've chased away my demons but i'm human at my best

[Chorus]
   A                  Dsus2/A
So come adore me, but know I'm gonna fall
Bm                          E
Off of this pedestal that I hope you've put me on
       A                 Dsus2/A
And as God's above me, I swear I'll try to be
Bm                              E
All that you ever want and I'll be the best of me
                A (Fig. 1)
I wanna be your human

(Fig. 1)
   A                         Dsus2/A
G|-0----------|-0---0---0--|-0----------|-0---0---0--|
B|-2----------|-3---2---0--|-3----------|-3---2---0--|
G|-2----------|-2---2---2--|-2----------|-2---2---2--|
D|-2----------|-2---2---2--|-0----------|-0---0---0--|
A|-0----------|-0---0---0--|-0----------|-0---0---0--|
E|------------|------------|------------|------------|

[Verse 2]
   A                                    Dsus2/A
If you could just believe in me the way I believe in you
     E
Your world would be just heavenly
         A
With our words, we'd speak the truth
   A                                 Dsus2/A
So lie down here beside me and we'll gaze up at the stars
E                                         A
Even they can fall sometimes, but they're perfect as they are

[Chorus]
   A                  Dsus2/A
So come adore me, but know I'm gonna fall
Bm                          E
Off of this pedestal that I hope you've put me on
       A                 Dsus2/A
And as God's above me, I swear I'll try to be
Bm                              E
All that you ever want and I'll be the best of me
                A (Fig. 1)        *Following Fig.1, it starts with the A
I wanna be your human              And Dsus2/A lands on the second "human"*
                Dsus2/A (Fig. 1)
I wanna be your human

(Fig. 1)
   A                         Dsus2/A
G|-0----------|-0---0---0--|-0----------|-0---0---0--|
B|-2----------|-3---2---0--|-3----------|-3---2---0--|
G|-2----------|-2---2---2--|-2----------|-2---2---2--|
D|-2----------|-2---2---2--|-0----------|-0---0---0--|
A|-0----------|-0---0---0--|-0----------|-0---0---0--|
E|------------|------------|------------|------------|

                A  (Fig. 1.5)
I wanna be your human

(Fig. 1.5)
   A
G|-0----------|-0---0---0--|
B|-2----------|-3---2---0--|
G|-2----------|-2---2---2--|
D|-2----------|-2---2---2--|
A|-0----------|-0---0---0--|
E|------------|------------|

[Bridge]
F#m               B
Satellites of love flying skies above
F#m                    B
Bring me back to earth, whisper holy words
D                 D#dim*
Planets all alive, Major Tom survived
E
All is justified when it's you and I

*D#dim: e|x  OR   e|2
        B|7       B|4
        G|8       G|2
        D|7       D|1
        A|6       A|x
        E|x       E|x

[Chorus]
   A                  Dsus2/A
So come adore me, but know I'm gonna fall
Bm                          E
Off of this pedestal that I hope you've put me on
       A                 Dsus2/A
And as God's above me, I swear I'll try to be
Bm                              E
All that you ever want and I'll be the best of me
                A (Fig. 1)        *Following Fig.1, it starts with the A
I wanna be your human              And Dsus2/A lands on the second "human"*
                Dsus2/A (Fig. 1)
I wanna be your human
                A (Fig. 1)
I wanna be your human
                Dsus2/A (Fig. 1)
I wanna be your human

(Fig. 1)
   A                         Dsus2/A
G|-0----------|-0---0---0--|-0----------|-0---0---0--|
B|-2----------|-3---2---0--|-3----------|-3---2---0--|
G|-2----------|-2---2---2--|-2----------|-2---2---2--|
D|-2----------|-2---2---2--|-0----------|-0---0---0--|
A|-0----------|-0---0---0--|-0----------|-0---0---0--|
E|------------|------------|------------|------------|

Out from Fig. 1, end with an A

            
            
Suggest correction
Creating personal tab
Creating personal tab
You can edit any tab online and save it as your Personal.

You can edit, replace or remove any tab part or add personal notes – all changes will be seen only by you.

Personal tabs can be accessed anytime from any device, even offline.
Learn more »
Give kudos to tab author, rate the tab!
1 2 3 4 5
comments
print report bad tab
guest
You may want to rate the tab now too:
select rating
Wanna post a correction for this tab? Suggest correction