Oops, an error
Loading. Please wait.

Johnny Got A Boom Boom Tab

version 1
version 1

Whole song

Interactive

11,319 views 15 this week
2 commentsread comments
1 2 3 4 5
worth learning
x 6
add to favorites
launch autoscroll
font size
0
reset
how to read this tab
guitar tuner
Tab Pro tools
  • play this tab
  • loop segment
  • change instrument
  • show fretboard
  • metronome
×
Best way to learn
"Johnny Got A Boom Boom"
Autoscroll
slow
fast
+/-
esc
set tempo
stop
Difficulty
novice
Composer: Imelda May.
Album: Love Tattoo.
Tab Compser: Matty Healy.

(0:25) Guitar enters on itunes version after D. Bass and Drums.
w = wammy
Verse:
e|---------------------------------------------------------------------------|
B|---------------------------------------------------------------------------|
G|---------------------------------------------------------------------------|
D|---------------------------------------------------------------------------|
A|---------------------------------------------------------------------------|
E|--0w--5-3-5-88-5-3-5-00-5-3-5-88-5-3-5-00-5-3-5-88-5-3-5-00-5-3-5-88-5-3-5-|

e|--------------------------------------------------------------------------|
B|--------------------------------------------------------------------------|
G|--------------------------------------------------------------------------|
D|--------------------------------------------------------------------------|
A|--------------------------------------------------------------------------|
E|-00-5-3-5-88-5-3-5-00-5-3-5-88-5-3-5-00-5-3-5-88-5-3-5-00-----------------|

Chorus (0:52) "johnny got a boom boom"

e|-1212----1212--------12---------------------------------------------------|
B|-1212----1212--------12---------------------------------------------------|
G|-1212----1212--------12---------------------------------------------------|
D|-1111----1111--------11---------------------------------------------------|
A|--------------------------------------------------------------------------|
E|--------------------------------------------------------------------------|

Verse: (1:01)
e|--------------------------------------------------------------------------|
B|--------------------------------------------------------------------------|
G|--------------------------------------------------------------------------|
D|--------------------------------------------------------------------------|
A|--------------------------------------------------------------------------|
E|-5-3-5-88-5-3-5-00-5-3-5-88-5-3-5-00-5-3-5-88-5-3-5-00-5-3-5-88-5-3-5-00--|

Chorus: (1:18)
e|-1212----1212--------12---------------------------------------------------|
B|-1212----1212--------12---------------------------------------------------|
G|-1212----1212--------12---------------------------------------------------|
D|-1111----1111--------11---------------------------------------------------|
A|--------------------------------------------------------------------------|
E|--------------------------------------------------------------------------|

Bridge: (1:26) Play Continiously (Downstrokes or up Go with the rythem until Chorus.)

e|-5---
B|-8---
G|-6---
D|-5---
A -7---
E -5---

Chorus: (1:43)
e|-1212----1212--------12---------------------------------------------------|
B|-1212----1212--------12---------------------------------------------------|
G|-1212----1212--------12---------------------------------------------------|
D|-1111----1111--------11---------------------------------------------------|
A|--------------------------------------------------------------------------|
E|--------------------------------------------------------------------------|

Solo: (2:08)
e|-----------------------------------------------------------------------|
B|-----------------------------------------------------------------------|
G|-----------------------------------------------------------------------|
D|-----------------------------------------------------------------------|
A|-----------------------------------------------------------------------|
E|-0w------55-33-55-8888-55-33-55-0000-55-33-55-8888-101110111011-88-5-3-|

Bridge: (2:20) Play until next Chorus.
e|-5---
B|-8---
G|-6---
D|-5---
A -7---
E -5---

Chorus: (2:37)
e|-1212----1212--------12---------------------------------------------------|
B|-1212----1212--------12---------------------------------------------------|
G|-1212----1212--------12---------------------------------------------------|
D|-1111----1111--------11---------------------------------------------------|
A|--------------------------------------------------------------------------|
E|--------------------------------------------------------------------------|

Outro:
This is the only gutiar part after chorus untill end.
e|-1212----1212--------12-|
B|-1212----1212--------12-|
G|-1212----1212--------12-|
D|-1111----1111--------11-|
A|------------------------|
E|------------------------|

I hope this tab sounds right for all you guys as it does for me. Wanted to put up a tab 
this epic song so here it is! This is my first tab doing my best dont be too harsh please!

Im not claiming this is perfect but please enjoy!

Any comments or anything for improvements or whatever email me matty946@hotmail.com
comments
print report bad tab
2 comments total.
-1 reply
mlmack94 wrote on November 7 2010, 06:01 am

this is pretty awesome nice one

0 reply
betute wrote on May 8 2011, 09:51 pm

The main riff is wrong brother, didnt even change strings. I dunno if it was a typo or somthing, but yeah man, play it to the song and it sounds way off.

I want to post or [tab]
guest
You may want to rate the tab now too:
select rating
Please do not post tabs as comments. Select "correction" instead!