Oops, an error
Loading. Please wait.

Leave Me Lonely chords

70 views 12 this week
no commentswrite comment
1 2 3 4 5
2 more votes to show rating
add to favorites
×
Save as Personal and add changes to this tab that will be seen only by you. Learn more ›
×
You can save this tab as Personal to edit and correct it or add notes. All changes will be seen only by you. Learn more »
launch autoscroll
font size
0
reset
transpose
0
reset
simplify chords
display chords
guitar tuner
edit
Autoscroll
slow
fast
+/-
esc
set tempo
stop
About this tab version
First guitar is distorted and can be played in power chords or full chords following the strumming pattern (first two downstrokes are just the base note or the palm-muted 5th chord). The song can also be played in a Dropped-D tuning to reach the bass D note for the 5th chords on the intro and verses, but it's not used anywhere else on the song and can be played well on standard tuning. Was this info helpful? Yes No
Strumming Is this strumming pattern correct? Yes No
Whole Song 188 bpm
1
&
2
&
3
&
4
&
Listen
[Intro]
Dm (x8)

(Guitar 2)
e|------------|------------|------------|-10.-x-10.---10--|
B|------------|------------|------------|-10.-x-10.---10--|
G|------------|------------|------------|-10.-x-10.---10--|
D|------------|------------|------------|-----------------|
A|------------|------------|------------|-----------------|
E|------------|------------|------------|-----------------|

[Verse 1]
Dm                                     (Fig. 1)
Why does the night feel longer than it really is

(Guitar 2) (Fig.1)
e|------------|------------|------------|-5.-x-5.---8--|
B|------------|------------|------------|-6.-x-6.---6--|
G|------------|------------|------------|-5.-x-5.---5--|
D|------------|------------|------------|--------------|
A|------------|------------|------------|--------------|
E|------------|------------|------------|--------------|

F                                               (Fig. 2)
When you've gone and left me, yeah you left me, yet again

(Guitar 2) (Fig.2)
e|------------|------------|------------|-5.-x-5.---5--|
B|------------|------------|------------|-6.-x-6.---6--|
G|------------|------------|------------|-7.-x-7.---7--|
D|------------|------------|------------|--------------|
A|------------|------------|------------|--------------|
E|------------|------------|------------|--------------|

Dm                                           (Fig. 1)
And how come it's different, it isn't what I thought I needed

(Guitar 2) (Fig.1)
e|------------|------------|------------|-5.-x-5.---8--|
B|------------|------------|------------|-6.-x-6.---6--|
G|------------|------------|------------|-5.-x-5.---5--|
D|------------|------------|------------|--------------|
A|------------|------------|------------|--------------|
E|------------|------------|------------|--------------|

F
Why do I miss you, wanna kiss you, when I think you're leavin'
Gm                    C
Why do I long for you more

[Chorus 1]
                  F
When you leave me lonely
         A        A7
Leave me only
         Dm (Fig. 3)
With the scent of your skin
Dm/C                     Bb
Scene of our sins in the dark

(Guitar 2) (Fig.3)
 Dm                Dm/C
e|-----1-------1---|-----1-------1---|
B|-------3-------3-|-------3-------3-|
G|---2-------2-----|---2-------2-----|
D|-0---------------|-----------------|
A|-----------------|-3---------------|
E|-----------------|-----------------|

         F
Leave me wanting
            A     A7
To feel you holding
   Dm (Fig. 3)
Me closer than ever
Dm/C
So close to heaven

(Guitar 2) (Fig.3)
 Dm                Dm/C
e|-----1-------1---|-----1-------1---|
B|-------3-------3-|-------3-------3-|
G|---2-------2-----|---2-------2-----|
D|-0---------------|-----------------|
A|-----------------|-3---------------|
E|-----------------|-----------------|

         Bb             Bbm
That you never
         F
Leave me lonely

[Verse 2]
Dm                                                                    (Fig. 4)
It's ok, I'm all good, ain't sayin' couldn't live without you 'cause I could

(Guitar 2) (Fig.4)
e|------------|------------|------------|-5.---------|
B|------------|------------|------------|-6.---------|
G|------------|------------|------------|-7.---------|
D|------------|------------|------------|------------|
A|------------|------------|------------|------------|
E|------------|------------|------------|------------|

F                                                                (Fig. 4)
But I'd rather, rather have you, wanna love you, love you like a worn shirt

(Guitar 2) (Fig.4)
e|------------|------------|------------|-5.---------|
B|------------|------------|------------|-6.---------|
G|------------|------------|------------|-7.---------|
D|------------|------------|------------|------------|
A|------------|------------|------------|------------|
E|------------|------------|------------|------------|

Dm                                                  (Fig. 4)
Oh baby, won't you take me, hate to admit it but I'm crazy

(Guitar 2) (Fig.4)
e|------------|------------|------------|-5.---------|
B|------------|------------|------------|-6.---------|
G|------------|------------|------------|-7.---------|
D|------------|------------|------------|------------|
A|------------|------------|------------|------------|
E|------------|------------|------------|------------|

F                                        (Fig. 4.5)
For you, for us, for this, whatever this is

(Guitar 2) (Fig.4.5)
e|------------|------------|------------|-----5\\\\\-|
B|------------|------------|------------|-----6\\\\\-|
G|------------|------------|------------|-----7\\\\\-|
D|------------|------------|------------|------------|
A|------------|------------|------------|------------|
E|------------|------------|------------|------------|

   Gm                      C
So love me once more before

[Chorus 2]
             F
You leave me lonely
         A         A7
Leave me only
         Dm (Fig. 3.5)
With the scent of your skin
  Dm/C                      Bb
Scene of our sins in the dark

(Guitar 2) (Fig.3.5)
 Dm                Dm/C              Dm/Bb
e|-----1-------1---|-----1-------1---|-----1-------1---|-----1-------1---|
B|-------3-------3-|-------3-------3-|-------3-------3-|-------3-------3-|
G|---2-------2-----|---2-------2-----|---2--------2----|---2-------2-----|
D|-0---------------|-----------------|-----------------|-----------------|
A|-----------------|-3---------------|-1---------------|-1---------------|
E|-----------------|-----------------|-----------------|-----------------|
         F
Leave me wanting
            A         A7
To feel you holding
   Dm  (Fig. 3.5)
Me closer than ever
   Dm/C
So close to heaven
          Bb           Bbm
That you never

(Guitar 2) (Fig.3.5)
 Dm                Dm/C              Dm/Bb             Bbm
e|-----1-------1---|-----1-------1---|-----1-------1---|-1---------------|
B|-------3-------3-|-------3-------3-|-------3-------3-|-2---------------|
G|---2-------2-----|---2-------2-----|---2--------2----|-3---------------|
D|-0---------------|-----------------|-----------------|-3---------------|
A|-----------------|-3---------------|-1---------------|-1---------------|
E|-----------------|-----------------|-----------------|-----------------|
         F            A7
Leave me lonely

[Bridge]
Dm       Dm/C     Dm/B              Bb   (Fig. 5)
Love me, hold me, don't leave me lonely
    Dm       Dm/C     Dm/B          Bb   (Fig. 5)
Now take me, make me, baby don't break me
    Dm       Dm/C     Dm/B           Bb  (Fig. 5) A
Oh pinch me, miss me, tell me you'll take me with you

(Guitar 2) (Fig.5)
 Dm           Dm/C         Dm/B         Bb
e|---------5--|---------5--|---------5--|---------5--|
B|---------6--|---------6--|---------6--|---------6--|
G|---------7--|---------7--|---------7--|---------7--|
D|------------|------------|------------|------------|
A|------------|------------|------------|------------|
E|------------|------------|------------|------------|

[Chorus 3]
               F
Don't leave me lonely
         A           A7
Leave me only
         Dm (Fig. 3)
With the scent of your skin
Dm/C                     Bb
Scene of our sins in the dark

(Guitar 2) (Fig.3)
 Dm                Dm/C
e|-----1-------1---|-----1-------1---|
B|-------3-------3-|-------3-------3-|
G|---2-------2-----|---2-------2-----|
D|-0---------------|-----------------|
A|-----------------|-3---------------|
E|-----------------|-----------------|
         F
Leave me wanting
            A
To feel you holding
   Dm (Fig. 3)
Me closer than ever
   Dm/C
So close to heaven

(Guitar 2) (Fig.3)
 Dm                Dm/C
e|-----1-------1---|-----1-------1---|
B|-------3-------3-|-------3-------3-|
G|---2-------2-----|---2-------2-----|
D|-0---------------|-----------------|
A|-----------------|-3---------------|
E|-----------------|-----------------|
          Bb           Bbm
That you never
         F             A      A7
Leave me lonely


***********************************

| x   Dead note
| .   Staccato
| \   Slide-down

***********************************

            
            
Suggest correction
Creating personal tab
Creating personal tab
You can edit any tab online and save it as your Personal.

You can edit, replace or remove any tab part or add personal notes – all changes will be seen only by you.

Personal tabs can be accessed anytime from any device, even offline.
Learn more »
Give kudos to tab author, rate the tab!
1 2 3 4 5
comments
print report bad tab
guest
You may want to rate the tab now too:
select rating
Wanna post a correction for this tab? Suggest correction