Oops, an error
Loading. Please wait.

Visceral tab

by Imicus
107 views 1 this week
no commentswrite comment
1 2 3 4 5
3 more votes to show rating
add to favorites
×
Save as Personal and add changes to this tab that will be seen only by you. Learn more ›
×
You can save this tab as Personal to edit and correct it or add notes. All changes will be seen only by you. Learn more »
launch autoscroll
font size
0
reset
how to read this tab
guitar tuner
edit
Autoscroll
slow
fast
+/-
esc
set tempo
stop
Song: Visceral
Artist: Imicus
Album: Animal Factory
Year: 2010
Composer(s): Imicus

Intro

c#-x-x--12\----------------------------------|
G#-x-x--12\----------------------------------|
E--x-x--12\----------------------------------|
B--x-x--12\--8-8-8-7-7-7-7-7-8-8-8-7-7-7-7-7-|
F#-x-x--12\--0-0-0-0-0-0-0-0-0-0-0-0-0-0-0-0-|
B--x-x--12\--0-0-0-0-0-0-0-0-0-0-0-0-0-0-0-0-|

c#-----------------------------------x-x-|
G#-----------------------------------x-x-|
E------------------------------------x-x-|
B--8-8-8-8-8-8-8-8-10-10-10-10-10-10-x-x-|
F#-8-8-8-8-8-8-8-8-8--8--8--8--8--8--x-x-|
B--8-8-8-8-8-8-8-8-8--8--8--8--8--8--x-x-|

c#--------------------------------------------------------|
G#--------------------------------------------------------|
E---------------------------------------------------------|
B-8-8-8-7-7-7-7-7-8-8-8-7-7-7-7-7-3-3-3-3-3-3-1-1-1-1-1-1-|
F#0-0-0-0-0-0-0-0-0-0-0-0-0-0-0-0-3-3-3-3-3-3-1-1-1-1-1-1-|
B-0-0-0-0-0-0-0-0-0-0-0-0-0-0-0-0-3-3-3-3-3-3-1-1-1-1-1-1-|

c#-----------------------------------------------------------------------|
G#-----------------------------------------------------------------------|
E------------------------------------------------------------------------|
B--------------------------------------8-8-8-8-8-8-8-8-10-10-10-10-10-10-|
F#-------------------------------------8-8-8-8-8-8-8-8-8--8--8--8--8--8--|
B--0-0-0-0-0-0-0-0-0-0-0-0-0-0-0-0-0-0-8-8-8-8-8-8-8-8-8--8--8--8--8--8--|

c#-------------------------------------------------------------|
G#-------------------------------------------------------------|
E--------------------------------------------------------------|
B--------------------------------------3-3-3-3-3-3-1-1-1-1-1-1-|
F#-------------------------------------3-3-3-3-3-3-1-1-1-1-1-1-|
B--0-0-0-0-0-0-0-0-0-0-0-0-0-0-0-0-0-0-3-3-3-3-3-3-1-1-1-1-1-1-|

c#---------------------|
G#---------------------|
E----------------------|
B----------------------|
F#---------0-------12\-|
B--0-0-0-0-0-0-0-0-12\-|

Verse

c#------------------------------------|
G#------------------------------------|
E-------------------------------------|
B-------------------------------------|
F#---------0----- x4 -------0---------|
B--0-0-0-0-0-0-0-    -0-0-0-0-0-0-0-0-|

c#---------|
G#---------|
E----------|
B--7-3-6-1-|
F#-7-3-6-1-|
B--7-3-6-1-|

Pre Chorus

c#-------------------|
G#-------------------|
E--------------------|
B--------------------|
F#---------0---------|x4
B--0-0-0-0-0-0-0-----|

Chorus

c#-x-x--12\----------------------------------|
G#-x-x--12\----------------------------------|
E--x-x--12\----------------------------------|
B--x-x--12\--8-8-8-7-7-7-7-7-8-8-8-7-7-7-7-7-|
F#-x-x--12\--0-0-0-0-0-0-0-0-0-0-0-0-0-0-0-0-|
B--x-x--12\--0-0-0-0-0-0-0-0-0-0-0-0-0-0-0-0-|

c#-----------------------------------x-x-|
G#-----------------------------------x-x-|
E------------------------------------x-x-|
B--8-8-8-8-8-8-8-8-10-10-10-10-10-10-x-x-|
F#-8-8-8-8-8-8-8-8-8--8--8--8--8--8--x-x-|
B--8-8-8-8-8-8-8-8-8--8--8--8--8--8--x-x-|

c#--------------------------------------------------------|
G#--------------------------------------------------------|
E---------------------------------------------------------|
B-8-8-8-7-7-7-7-7-8-8-8-7-7-7-7-7-3-3-3-3-3-3-1-1-1-1-1-1-|
F#0-0-0-0-0-0-0-0-0-0-0-0-0-0-0-0-3-3-3-3-3-3-1-1-1-1-1-1-|
B-0-0-0-0-0-0-0-0-0-0-0-0-0-0-0-0-3-3-3-3-3-3-1-1-1-1-1-1-|

c#---------------------|
G#---------------------|
E----------------------|
B----------------------|
F#---------0-------12\-|
B--0-0-0-0-0-0-0-0-12\-|

Verse

c#------------------------------------|
G#------------------------------------|
E-------------------------------------|
B-------------------------------------|
F#---------0----- x4 -------0---------|
B--0-0-0-0-0-0-0-    -0-0-0-0-0-0-0-0-|

c#---------|
G#---------|
E----------|
B--7-3-6-1-|
F#-7-3-6-1-|
B--7-3-6-1-|

Pre Chorus

c#-------------------|
G#-------------------|
E--------------------|
B--------------------|
F#---------0---------|x4
B--0-0-0-0-0-0-0-----|

Chorus

c#-x-x--12\----------------------------------|
G#-x-x--12\----------------------------------|
E--x-x--12\----------------------------------|
B--x-x--12\--8-8-8-7-7-7-7-7-8-8-8-7-7-7-7-7-|
F#-x-x--12\--0-0-0-0-0-0-0-0-0-0-0-0-0-0-0-0-|
B--x-x--12\--0-0-0-0-0-0-0-0-0-0-0-0-0-0-0-0-|

c#-----------------------------------x-x-|
G#-----------------------------------x-x-|
E------------------------------------x-x-|
B--8-8-8-8-8-8-8-8-10-10-10-10-10-10-x-x-|
F#-8-8-8-8-8-8-8-8-8--8--8--8--8--8--x-x-|
B--8-8-8-8-8-8-8-8-8--8--8--8--8--8--x-x-|

c#--------------------------------------------------------|
G#--------------------------------------------------------|
E---------------------------------------------------------|
B-8-8-8-7-7-7-7-7-8-8-8-7-7-7-7-7-3-3-3-3-3-3-1-1-1-1-1-1-|
F#0-0-0-0-0-0-0-0-0-0-0-0-0-0-0-0-3-3-3-3-3-3-1-1-1-1-1-1-|
B-0-0-0-0-0-0-0-0-0-0-0-0-0-0-0-0-3-3-3-3-3-3-1-1-1-1-1-1-|

c#-----------------------------------------------------------------------|
G#-----------------------------------------------------------------------|
E------------------------------------------------------------------------|
B--------------------------------------8-8-8-8-8-8-8-8-10-10-10-10-10-10-|
F#-------------------------------------8-8-8-8-8-8-8-8-8--8--8--8--8--8--|
B--0-0-0-0-0-0-0-0-0-0-0-0-0-0-0-0-0-0-8-8-8-8-8-8-8-8-8--8--8--8--8--8--|

c#-----------------------------------------------------------|
G#-----------------------------------------------------------|
E------------------------------------------------------------|
B--------------------------------------3-3-3-3-3-3-1-1-1-1-1-|
F#-------------------------------------3-3-3-3-3-3-1-1-1-1-1-|
B--0-0-0-0-0-0-0-0-0-0-0-0-0-0-0-0-0-0-3-3-3-3-3-3-1-1-1-1-1-|

Breakdown Part 1

Guitar 1

c#----------------------------------------------11----11-------------------|
G#-15-15-15-15-15-15-15-15-15-15-15-15-15-15-15-15b16-15b16-15-15-15-15-15-|
E--------------------------------------------------------------------------|
B--------------------------------------------------------------------------|
F#-------------------------------------------------------------------------|
B--------------------------------------------------------------------------|

c#----------------|
G#-15-13-13-13-13-|
E-----------------|
B-----------------|
F#----------------|
B-----------------|


Guitar 2

c#---
G#---
E----
B--0~
F#-0~
B--0~

c#--------------------------------|
G#--------------------------------|
E---------------------------------|
B----0----0-----0-----0-----0-----|
F#-----0----0-----0-----0-----0---|
B--0-----0----0-----0-----0-----0-|

c#--------------------------------|
G#--------------------------------|
E---------------------------------|
B----0----0-----0-----0-----0-----|
F#-----0----0-----0-----0-----0---|
B--0-----0----0-----0-----0-----0-|

c#--------------------------------|
G#--------------------------------|
E---------------------------------|
B----8----8-----8-----8-----8-----|
F#-----8----8-----8-----8-----8---|
B--8-----8----8-----8-----8-----8-|

c#----------------|
G#----------------|
E-----------------|
B----5----5-------|
F#-----5----5---5-|
B--5-----5----5---|

(Not sure about this bit but this is what I think it is. There is also a random 5h7 on 
the D string around there).

c#----------------|
G#----------------|
E-----------------|
B----7----7-------|
F#-----7----7---7-|
B--7-----7----7---|

c#--------------------------------|
G#--------------------------------|
E---------------------------------|
B----0----0-----0-----0-----0-----|
F#-----0----0-----0-----0-----0---|
B--0-----0----0-----0-----0-----0-|

c#--------------------------------|
G#--------------------------------|
E---------------------------------|
B----0----0-----0-----0-----0-----|
F#-----0----0-----0-----0-----0---|
B--0-----0----0-----0-----0-----0-|

c#--------------------------------|
G#--------------------------------|
E---------------------------------|
B----8----8-----8-----8-----8-----|
F#-----8----8-----8-----8-----8---|
B--8-----8----8-----8-----8-----8-|

c#----------------|
G#----------------|
E-----------------|
B----5----5-------|
F#-----5----5---5-|
B--5-----5----5---|


c#---------------|
G#---------------|
E----------------|
B--7-7-7-7-7/3-3-|
F#-7-7-7-7-7/3-3-|
B--7-7-7-7-7/3-3-|

Breakdown Part 2

Guitar 1

Tremolo pick all these notes

c#-20b22-20-17-15-13-20b22-20-17-15-13-20b22-20-17-15-13-20b22-20-20b22-|
G#----------------------------------------------------------------------|
E-----------------------------------------------------------------------|
B-----------------------------------------------------------------------|
F#----------------------------------------------------------------------|
B-----------------------------------------------------------------------|

Guitar 2

c#------------------------------------------------------|
G#------------------------------------------------------|
E-------------------------------------------------------|
B--0-0~-0-0~-0-0~-0-0~-8-8~-8-8~-5-5~-5-5-7-7-7-7-7/3-3-|
F#-0-0~-0-0~-0-0~-0-0~-8-8~-8-8~-5-5~-5-5-7-7-7-7-7/3-3-|
B--0-0~-0-0~-0-0~-0-0~-8-8~-8-8~-5-5~-5-5-7-7-7-7-7/3-3-|

c#------------------------------------------------------|
G#------------------------------------------------------|
E-------------------------------------------------------|
B--0-0~-0-0~-0-0~-0-0~-8-8~-8-8~-5-5~-5-5-7-7-7-7-7/3-3-|
F#-0-0~-0-0~-0-0~-0-0~-8-8~-8-8~-5-5~-5-5-7-7-7-7-7/3-3-|
B--0-0~-0-0~-0-0~-0-0~-8-8~-8-8~-5-5~-5-5-7-7-7-7-7/3-3-|

Guitar Solo (I haven't worked out the solo itself yet, but here's the rhythm for it).

c#-------------------|
G#-------------------|
E--------------------|
B--------------------|
F#---------0---------|x8
B--0-0-0-0-0-0-0-----|

Chorus

c#-x-x--12\----------------------------------|
G#-x-x--12\----------------------------------|
E--x-x--12\----------------------------------|
B--x-x--12\--8-8-8-7-7-7-7-7-8-8-8-7-7-7-7-7-|
F#-x-x--12\--0-0-0-0-0-0-0-0-0-0-0-0-0-0-0-0-|
B--x-x--12\--0-0-0-0-0-0-0-0-0-0-0-0-0-0-0-0-|

c#-----------------------------------x-x-|
G#-----------------------------------x-x-|
E------------------------------------x-x-|
B--8-8-8-8-8-8-8-8-10-10-10-10-10-10-x-x-|
F#-8-8-8-8-8-8-8-8-8--8--8--8--8--8--x-x-|
B--8-8-8-8-8-8-8-8-8--8--8--8--8--8--x-x-|

c#--------------------------------------------------------|
G#--------------------------------------------------------|
E---------------------------------------------------------|
B-8-8-8-7-7-7-7-7-8-8-8-7-7-7-7-7-3-3-3-3-3-3-1-1-1-1-1-1-|
F#0-0-0-0-0-0-0-0-0-0-0-0-0-0-0-0-3-3-3-3-3-3-1-1-1-1-1-1-|
B-0-0-0-0-0-0-0-0-0-0-0-0-0-0-0-0-3-3-3-3-3-3-1-1-1-1-1-1-|

c#-----------------------------------------------------------------------|
G#-----------------------------------------------------------------------|
E------------------------------------------------------------------------|
B--------------------------------------8-8-8-8-8-8-8-8-10-10-10-10-10-10-|
F#-------------------------------------8-8-8-8-8-8-8-8-8--8--8--8--8--8--|
B--0-0-0-0-0-0-0-0-0-0-0-0-0-0-0-0-0-0-8-8-8-8-8-8-8-8-8--8--8--8--8--8--|

c#-------------------------------------------------------------|
G#-------------------------------------------------------------|
E--------------------------------------------------------------|
B--------------------------------------3-3-3-3-3-3-1-1-1-1-1-1-|
F#-------------------------------------3-3-3-3-3-3-1-1-1-1-1-1-|
B--0-0-0-0-0-0-0-0-0-0-0-0-0-0-0-0-0-0-3-3-3-3-3-3-1-1-1-1-1-1-|

c#---------------|
G#---------------|
E----------------|
B----------------|
F#---------0-----|
B--0-0-0-0-0-0-0-|

That's it :) Hope you guys enjoyed it :)

            
            
Suggest correction
Creating personal tab
Creating personal tab
You can edit any tab online and save it as your Personal.

You can edit, replace or remove any tab part or add personal notes – all changes will be seen only by you.

Personal tabs can be accessed anytime from any device, even offline.
Learn more »
Give kudos to tab author, rate the tab!
1 2 3 4 5
comments
print report bad tab
guest
You may want to rate the tab now too:
select rating
Wanna post a correction for this tab? Suggest correction