Oops, an error
Loading. Please wait.

At The Heart Of Winter tab

version 2
version 2

Whole song

Interactive

13,572 views 18 this week
2 commentsread comments
1 2 3 4 5
x 7
add to favorites
×
Save as Personal and add changes to this tab that will be seen only by you. Learn more ›
×
You can save this tab as Personal to edit and correct it or add notes. All changes will be seen only by you. Learn more »
launch autoscroll
font size
0
reset
how to read this tab
guitar tuner
backing track
0:00
0:00
edit
Autoscroll
slow
fast
+/-
esc
set tempo
stop
Song: at the heart of winter
Album: at the heart of winter
Tuning: standard (e,B,G,D,A,E)
all music by: abbath & horgh
all lyrics by: demonaz

[Intro] 
(clean)
e|----------------|-----------------|-----------------|----------------|
B|--5~--5--4--7---|--9--9--9--9-----|--5~--5--4--7----|--5--5--5--5----| (x2)
G|--6~---6--6--6--|---6--6--6--6----|--6~---6--6--6---|---6--6--7--7---|
D|--6~----6--6--6-|----7--7--7--7---|--6~----6--6--6--|----6--6--7--7--|
A|--4~------------|-----------------|--4~-------------|----------------|
E|----------------|-----------------|-----------------|----------------|

    3rd time
e|----------------|-----------------|-----------------|----------------|
B|--5~--5--4--7---|--9--9--9--9-----|--5~--5--4--7----|--5--5----4~----|
G|--6~---6--6--6--|---6--6--6--6----|--6~---6--6--6---|---6--6---4~----|
D|--6~----6--6--6-|----7--7--7--7---|--6~----6--6--6--|----6--6--6~----|
A|--4~------------|-----------------|--4~-------------|----------------|
E|----------------|-----------------|-----------------|----------------|

[Intro 2] 
(clean) 
(i numbered how many times to play each part to make it
shorter)
e|------|----x3|----x4|----x4|----x2|----x2|----x4|----x4|-----x4|----x2|
B|------|------|------|------|------|------|------|------|-------|------|
G|------|------|------|------|------|------|------|------|-------|------|
D|--8~--|--8---|--9---|--8---|--9---|--8---|--8---|--9---|--13---|--9---|
A|--6~--|---6--|---6--|---6--|---6--|---6--|---6--|---6--|---11--|---7--|
E|--6~--|----6-|----6-|----8-|----7-|----7-|----6-|----6-|----11-|----7-|

e|----------|----x4|----x4|----x4|----x2|----x2|----x4|----x4|-----x4|-----|
B|----------|------|------|------|------|------|------|------|-------|-----|
G|----------|------|------|------|------|------|------|------|-------|-----|
D|--11--9---|--8---|--9---|--8---|--9---|--8---|--8---|--9---|--11---|--6~-|
A|----9--7--|---6--|---6--|---6--|---6--|---6--|---6--|---6--|----9--|--4~-|
E|-----9--7-|----6-|----6-|----8-|----7-|----7-|----6-|----6-|-----9-|--4~-|

SOUND FX
           
[riff 1]                                                    end of 2nd time
e|------------|----------------|-----------|---------------|--------|
B|------------|----------------|-----------|---------------|--------|
G|------------|----------------|-----------|---------------|--------|
D|--9-9-7-9~--|--9-9-7-9~-/12--|--9-9-7-9~-|--9-9-7-14-12--|--------|
A|--7-7-5-7~--|--7-7-5-7~-/10--|--7-7-5-7~-|--7-7-5-12-10--|--10ph--|
E|--7-7-5-7~--|--7-7-5-7~-/10--|--7-7-5-7~-|--7-7-5-12-10--|--------|
    * * *        * * *            * * *       * * *

[riff 2]
e|-----------------------------------|--------------------------------------|
B|-----------------------------------|--------------------------------------|
G|-----------------------------------|--------------------------------------|
D|----14-12-14~----14-12-14~-----14--|-----14-12-14~-----14-12-14~----12-11-|
A|-------------------------------14--|--------------------------------10-9--|
E|--0-----------0-------------00-12/-|--0-------------0------------00-10-9--|
    *           *             **        *             *            **

[riff 3]
e|------------------------------------------------------------|
B|------------------------------------------------------------|
G|------------------------------------------------------------|
D|--9~----5~----9~------4-------9~----5~----7~----5~----7~----|
A|--7~----3~----7~----------3---7~----3~----5~----3~----5~----|
E|--7~----3~----7~----5----3--3/7~----3~----5~----3~----5~----|

[riff 2] (x2)
e|-----------------------------------|--------------------------------------|
B|-----------------------------------|--------------------------------------|
G|-----------------------------------|--------------------------------------|
D|----14-12-14~----14-12-14~-----14--|-----14-12-14~-----14-12-14~----12-11-|
A|-------------------------------14--|--------------------------------10-9--|
E|--0-----------0-------------00-12/-|--0-------------0------------00-10-9--|
    *           *             **        *             *            **

[riff 3]
e|------------------------------------------------------------|
B|------------------------------------------------------------|
G|------------------------------------------------------------|
D|--9~----5~----9~------4-------9~----5~----7~----5~----7~----|
A|--7~----3~----7~----------3---7~----3~----5~----3~----5~----|
E|--7~----3~----7~----5----3--3/7~----3~----5~----3~----5~----|

[riff 2] (x2)
e|-----------------------------------|--------------------------------------|
B|-----------------------------------|--------------------------------------|
G|-----------------------------------|--------------------------------------|
D|----14-12-14~----14-12-14~-----14--|-----14-12-14~-----14-12-14~----12-11-|
A|-------------------------------14--|--------------------------------10-9--|
E|--0-----------0-------------00-12/-|--0-------------0------------00-10-9--|
    *           *             **        *             *            **

[riff 4]
e|---------------------------|---------------------------|
B|---------------------------|---------------------------|
G|---------------------------|---------------------------|
D|--9------9------9------9~--|-10-----10-----10-----10~--|
A|--7-7777-7-7777-7-7777-7~--|--7-7777-7-7777-7-7777-7~--|
E|---------------------------|---------------------------|
      ****   ****   ****          ****   ****   ****

e|---------------------------|----------------|
B|---------------------------|--5--5--3--3----|
G|---------------------------|---5--5--4--4---|
D|--9------9------9------9~--|----5--5--5--5--|
A|--7-7777-7-7777-7-7777-7~--|----------------|
E|---------------------------|----------------|
      ****   ****   ****         

e|---------------------------|---------------------------|
B|---------------------------|---------------------------|
G|---------------------------|---------------------------|
D|--9------9------9------9~--|-10-----10-----10-----10~--|
A|--7-7777-7-7777-7-7777-7~--|--7-7777-7-7777-7-7777-7~--|
E|---------------------------|---------------------------|
      ****   ****   ****          ****   ****   ****

(to save space i wrote the different ends for riff 4 here so you play
all of riff 1 and use the ends here.)

   end 1             end 2                         end 3
e|----------|-----------------------------------|----x8|---x8|
B|----------|-----------------------------------|------|-----|
G|----------|-----------------------------------|------|-----|
D|--9~--7~--|--14-14-14141414-1010-12-12-10-10--|--12--|--7--|
A|--7~--5~--|--12-12-12121212-8888-10-10--8--8--|--10--|--5--|
E|--7~--5~--|--12-12-12121212-8888-10-10--8--8--|--10--|--5--|

[riff 5]
e|----------------------|---------------------------|
B|----------------------|---------------------------|
G|----------------------|---------------------------|
D|--9'-7'-5'-5'-3'------|--9'-7'-9'-10'-9'-7'-5'----|
A|----------------3'----|-----------------------5'--|
E|----------------------|---------------------------|

[riff 4] (x2)
e|---------------------------|---------------------------|
B|---------------------------|---------------------------|
G|---------------------------|---------------------------|
D|--9------9------9------9~--|-10-----10-----10-----10~--|
A|--7-7777-7-7777-7-7777-7~--|--7-7777-7-7777-7-7777-7~--|
E|---------------------------|---------------------------|
      ****   ****   ****          ****   ****   ****

e|---------------------------|----------------|
B|---------------------------|--5--5--3--3----|
G|---------------------------|---5--5--4--4---|
D|--9------9------9------9~--|----5--5--5--5--|
A|--7-7777-7-7777-7-7777-7~--|----------------|
E|---------------------------|----------------|
      ****   ****   ****         

e|---------------------------|---------------------------|
B|---------------------------|---------------------------|
G|---------------------------|---------------------------|
D|--9------9------9------9~--|-10-----10-----10-----10~--|
A|--7-7777-7-7777-7-7777-7~--|--7-7777-7-7777-7-7777-7~--|
E|---------------------------|---------------------------|
      ****   ****   ****          ****   ****   ****

(end 2)                       
e|-----------------------------------|
B|-----------------------------------|
G|-----------------------------------|
D|--14-14-14141414-1010-12-12-10-10--|
A|--12-12-12121212-8888-10-10--8--8--|
E|--12-12-12121212-8888-10-10--8--8--|

[riff 4]
e|---------------------------|---------------------------|
B|---------------------------|---------------------------|
G|---------------------------|---------------------------|
D|--9------9------9------9~--|-10-----10-----10-----10~--|
A|--7-7777-7-7777-7-7777-7~--|--7-7777-7-7777-7-7777-7~--|
E|---------------------------|---------------------------|
      ****   ****   ****          ****   ****   ****

e|---------------------------|----------------|
B|---------------------------|--5--5--3--3----|
G|---------------------------|---5--5--4--4---|
D|--9------9------9------9~--|----5--5--5--5--|
A|--7-7777-7-7777-7-7777-7~--|----------------|
E|---------------------------|----------------|
      ****   ****   ****         

e|---------------------------|---------------------------|
B|---------------------------|---------------------------|
G|---------------------------|---------------------------|
D|--9------9------9------9~--|-10-----10-----10-----10~--|
A|--7-7777-7-7777-7-7777-7~--|--7-7777-7-7777-7-7777-7~--|
E|---------------------------|---------------------------|
      ****   ****   ****          ****   ****   ****

(end 3)
e|----x8|---x8|
B|------|-----|
G|------|-----|
D|--12--|--7--|
A|--10--|--5--|
E|--10--|--5--|

[riff 5]
e|----------------------|---------------------------|
B|----------------------|---------------------------|
G|----------------------|---------------------------|
D|--9'-7'-5'-5'-3'------|--9'-7'-9'-10'-9'-7'-5'----|
A|----------------3'----|-----------------------5'--|
E|----------------------|---------------------------|

[riff 6]
e|---------------------------------------------------------------|
B|---------------------------------------------------------------|
G|---------------------------------------------------------------|
D|--9~--9--10~---9----9-10-9--7-9-7-----7--------------------9~--|
A|--7~-7---10~--9-9'-----------------10---10--9-10-9--7-9-7--7~--|
E|--7~------8~-----------------------------------------------7~--|

 (1st end)
e|---------------------------------------------------------------------|
B|-----------12'10'--12'10'8'10'-12'10'8'10'-12'10'8'10'-12'10'8'7'5~--|
G|--8-8~-9~------------------------------------------------------------|
D|---------------------------------------------------------------------|
A|---------------------------------------------------------------------|
E|---------------------------------------------------------------------|

[riff 6]
e|---------------------------------------------------------------|
B|---------------------------------------------------------------|
G|---------------------------------------------------------------|
D|--9~--9--10~---9----9-10-9--7-9-7-----7--------------------9~--|
A|--7~-7---10~--9-9'-----------------10---10--9-10-9--7-9-7--7~--|
E|--7~------8~-----------------------------------------------7~--|

(end 2)
e|----------|
B|----------|
G|----------|
D|--8~--5~--|
A|--6~--3~--|
E|--6~--3~--|

[riff 7]
e|-------------------------------------------------------------------------|
B|--8p5--8p5--8p5--9p5--8p5--9p5--8p5--8p5---------------------------------|
G|-----5----5----5----5----5----5----5----5--10p8--10p8--10p8--10p8--11p8--|
D|-----------------------------------------------8-----8-----8-----8-----8-|
A|-------------------------------------------------------------------------|
E|-------------------------------------------------------------------------|

e|---------------------|------------------------------------------------|
B|---------------------|--8p5--8p5--8p5--9p5--8p5--9p5--8p5--8p5--8p5---|
G|--10p8--11p8--10p8---|-----5----5----5----5----5----5----5----5----5--|
D|------8-----8-----8--|------------------------------------------------|
A|---------------------|------------------------------------------------|
E|---------------------|------------------------------------------------|

e|---------------------------------------------------------|
B|---------------------------------------------------------|
G|--10p8--10p8--10p8--10p8---14p10--14p10--14p10--14p10----|
D|------8-----8-----8-----8-------12-----12-----12-----12--|
A|---------------------------------------------------------|
E|---------------------------------------------------------|

[riff 1]                                                    end of 2nd time
e|------------|----------------|-----------|---------------|--------|
B|------------|----------------|-----------|---------------|--------|
G|------------|----------------|-----------|---------------|--------|
D|--9-9-7-9~--|--9-9-7-9~-/12--|--9-9-7-9~-|--9-9-7-14-12--|--------|
A|--7-7-5-7~--|--7-7-5-7~-/10--|--7-7-5-7~-|--7-7-5-12-10--|--10ph--|
E|--7-7-5-7~--|--7-7-5-7~-/10--|--7-7-5-7~-|--7-7-5-12-10--|--------|
    * * *        * * *            * * *       * * *

[riff 2] (x2)
e|-----------------------------------|--------------------------------------|
B|-----------------------------------|--------------------------------------|
G|-----------------------------------|--------------------------------------|
D|----14-12-14~----14-12-14~-----14--|-----14-12-14~-----14-12-14~----12-11-|
A|-------------------------------14--|--------------------------------10-9--|
E|--0-----------0-------------00-12/-|--0-------------0------------00-10-9--|
    *           *             **        *             *            **

[riff 3]
e|------------------------------------------------------------|
B|------------------------------------------------------------|
G|------------------------------------------------------------|
D|--9~----5~----9~------4-------9~----5~----7~----5~----7~----|
A|--7~----3~----7~----------3---7~----3~----5~----3~----5~----|
E|--7~----3~----7~----5----3--3/7~----3~----5~----3~----5~----|

[riff 2] (x2)
e|-----------------------------------|--------------------------------------|
B|-----------------------------------|--------------------------------------|
G|-----------------------------------|--------------------------------------|
D|----14-12-14~----14-12-14~-----14--|-----14-12-14~-----14-12-14~----12-11-|
A|-------------------------------14--|--------------------------------10-9--|
E|--0-----------0-------------00-12/-|--0-------------0------------00-10-9--|
    *           *             **        *             *            **

[riff 3] (x3)
e|------------------------------------------------------------|
B|------------------------------------------------------------|
G|------------------------------------------------------------|
D|--9~----5~----9~------4-------9~----5~----7~----5~----7~----|
A|--7~----3~----7~----------3---7~----3~----5~----3~----5~----|
E|--7~----3~----7~----5----3--3/7~----3~----5~----3~----5~----|

[Outro]
e|------------------------------------------------------------------|
B|------------------------------------------------------------------|
G|------------------------------------------------------------------|
D|--9~--------5~----------7----5----7------------9-9-7-9~-----------|
A|--7~--------3~----------5----3----5------------7-7-5-7~-----------|
E|--7~--------3~----------5----3----5------------7-7-5-7~-----------|
                                                 * * *
 im staring forth the raventhrone,i know im at the heart of winter....


************************************

| ~  Vibrato
| x  Dead note
| /  Slide up
| p  Pull-off

************************************
Suggest correction
Creating personal tab
Creating personal tab
You can edit any tab online and save it as your Personal.

You can edit, replace or remove any tab part or add personal notes – all changes will be seen only by you.

Personal tabs can be accessed anytime from any device, even offline.
Learn more »
comments
print report bad tab
2 comments total.
0 reply
axslinger19 10 Dec 02, 2008 10:24 AM

Awesome job on this tab man! It helped a lot.

0 reply
Mortiroth 20 Jan 01, 2009 10:45 AM

Freaking excellent tab!!! :D

guest
You may want to rate the tab now too:
select rating
Wanna post a correction for this tab? Suggest correction