Oops, an error
Loading. Please wait.

Wrath From Above bass

version 1
version 1

Whole song

Interactive

865 views 3 this week
no commentswrite comment
1 2 3 4 5
3 more votes to show rating
add to favorites
×
Save as Personal and add changes to this tab that will be seen only by you. Learn more ›
×
You can save this tab as Personal to edit and correct it or add notes. All changes will be seen only by you. Learn more »
launch autoscroll
font size
0
reset
guitar tuner
edit
Autoscroll
slow
fast
+/-
esc
set tempo
stop
Author
Difficulty
                              Wrath from above                                 


                                                                        Immortal
Saroth



      Q    Q    S S S S S S S S    Q    Q    S S S S S S  S  S  
G||-----------------------------|------------------------------|
D||*------------8-8-8-8-7-7-7-7-|------------8-8-7-7-8-8-10-10-|
A||*--2----2--------------------|--3----3----------------------|
E||-----------------------------|------------------------------|


  Q    Q    S S S S S S S S    Q    E  S S E  E  E   E   
----------------------------|---------------------------|
------------8-8-8-8-7-7-7-7-|----------8-8-8--7--8--10--|
--2----2--------------------|--3----3-------------------|
----------------------------|---------------------------|


  Q    Q    S S S S S S S S    Q    Q    S S S S S S  S  S  
----------------------------|------------------------------|
------------8-8-8-8-7-7-7-7-|------------8-8-7-7-8-8-10-10-|
--2----2--------------------|--3----3----------------------|
----------------------------|------------------------------|


  Q    Q    S S S S S S S S    E  S S E  E  E  S S E  E   
----------------------------|----------------------------|
------------8-8-8-8-7-7-7-7-|------------2--1--1-1-1--1--|
--2----2--------------------|--3--3-3-3------------------|
----------------------------|----------------------------|


  E  S S Q    S S S S S S S S    E  S S E  S S E  E  E   E   
------------------------------|-----------------------------|
--2--2-2-2----2-2-------------|-----------------------------|
------------------2-2---------|-----------------------------|
----------------------3-3-1-1-|--1--1-1-1--8-8-8--7--8--10--|


  E  S S Q    S S S S S S S S    E  S S E  E  E  S S E  E   
------------------------------|----------------------------|
--2--2-2-2----2-2-------------|----------------------------|
------------------2-2---------|----------------------------|
----------------------3-3-1-1-|--1--1-1-1--5--4--4-4-4--4--|


  E  S S Q    S S S S S S S S    E  S S E  S S E  E  E   E   
------------------------------|-----------------------------|
--2--2-2-2----2-2-------------|-----------------------------|
------------------2-2---------|-----------------------------|
----------------------3-3-1-1-|--1--1-1-1--8-8-8--7--8--10--|


  E  S S Q    S S S S S S S S    E  S S E  E  E  S S E  E   
------------------------------|----------------------------|
--2--2-2-2----2-2-------------|----------------------------|
------------------2-2---------|----------------------------|
----------------------3-3-1-1-|--1--1-1-1--5--4--4-4-4--4--|


  E  S S E  E  E  S S E  E       E  S S E  E  E  S S E  E   
-----------------------------||----------------------------|
----------------------------*||----------------------------|
--3--3-3-3------------------*||--3--3-3-3------------------|
------------3--4--4-4-4--4---||------------3--4--4-4-4--4--|


  H.           S S E     H.           E  E     H.           S S E   
----------------------|---------------------|----------------------|
----------------------|---------------------|----------------------|
----------------------|---------------------|----------------------|
---------------0-0-1--|---------------1--0--|---------------0-0-1--|


                                  |-3-|       |-3-|       |-3-|  
  E  E   E  E  E   E  E  E     E  S S S E  E  S S S E  E  S S S  
----------------------------|-----------------------------------|
----------------------------|-----------------------------------|
----------------------------|--5--------3--5--------3--6--------|
--0--3S--2--0--3S--2--1--0--|-----0-0-0-------0-0-0-------0-0-0-|


                 |-3-|          |-3-|                       
  E  E  E  E  E  S S S E  E     S S S E  E  E  E  E  E  E   
-----------------------------|-----------------------------|
-----------------------------|-----------------------------|
--5--1--3--4--5--------3--5--|--------3--6--5--3--6--5--3--|
-----------------0-0-0-------|--0-0-0----------------------|


     |-3-|       |-3-|       |-3-|                   |-3-|        
  E  S S S E  E  S S S E  E  S S S    E  E  E  E  E  S S S E  E   
-----------------------------------|-----------------------------|
-----------------------------------|-----------------------------|
--5--------3--5--------3--6--------|--5--1--3--4--5--------3--5--|
-----0-0-0-------0-0-0-------0-0-0-|-----------------0-0-0-------|


  |-3-|       |-3-|                                          
  S S S E  E  S S S E  E  E  E     E  E  E  E  E  E  S S E   
--------------------------------|---------------------------|
--------------------------------|---------------------------|
--------1--3--------------------|-----7--6-----7--6---------|
--0-0-0-------0-0-0-3--4--3--1--|--0--------0--------0-0-1--|


  E  E  E  E  E  E  S S S S    E  E  E  E  E  E  S S E   
----------------------------|---------------------------|
----------------------------|---------------------------|
-----7--6-----7--6--3---2---|-----7--6-----7--6---------|
--0--------0----------4---3-|--0--------0--------0-0-1--|


  E  E   E  E  E   E  E  E     E  E  E  E  E  E  S S E   
----------------------------|---------------------------|
----------------------------|---------------------------|
----------------------------|-----7--6-----7--6---------|
--0--3S--2--0--3S--2--1--0--|--0--------0--------0-0-1--|


  E  E  E  E  E  E  S S S S    E  E  E  E  E  E  S S E   
----------------------------|---------------------------|
----------------------------|---------------------------|
-----7--6-----7--6--3---2---|-----7--6-----7--6---------|
--0--------0----------4---3-|--0--------0--------0-0-1--|


                                  |-3-|       |-3-|       |-3-|  
  E  E   E  E  E   E  E  E     E  S S S E  E  S S S E  E  S S S  
----------------------------|-----------------------------------|
----------------------------|-----------------------------------|
----------------------------|--5--------3--5--------3--6--------|
--0--3S--2--0--3S--2--1--0--|-----0-0-0-------0-0-0-------0-0-0-|


                 |-3-|          |-3-|                       
  E  E  E  E  E  S S S E  E     S S S E  E  E  E  E  E  E   
-----------------------------|-----------------------------|
-----------------------------|-----------------------------|
--5--1--3--4--5--------3--5--|--------3--6--5--3--6--5--3--|
-----------------0-0-0-------|--0-0-0----------------------|


     |-3-|       |-3-|       |-3-|                   |-3-|        
  E  S S S E  E  S S S E  E  S S S    E  E  E  E  E  S S S E  E   
-----------------------------------|-----------------------------|
-----------------------------------|-----------------------------|
--5--------3--5--------3--6--------|--5--1--3--4--5--------3--5--|
-----0-0-0-------0-0-0-------0-0-0-|-----------------0-0-0-------|


  |-3-|       |-3-|                                          
  S S S E  E  S S S E  E  E  E     E  E  E  E  E  E  S S E   
--------------------------------|---------------------------|
--------------------------------|---------------------------|
--------1--3--------------------|-----7--6-----7--6---------|
--0-0-0-------0-0-0-3--4--3--1--|--0--------0--------0-0-1--|


  E  E  E  E  E  E  S S S S    E  E  E  E  E  E  S S E   
----------------------------|---------------------------|
----------------------------|---------------------------|
-----7--6-----7--6--3---2---|-----7--6-----7--6---------|
--0--------0----------4---3-|--0--------0--------0-0-1--|


  E  E   E  E  E   E  E  E     E  E  E  E  E  E  S S E   
----------------------------|---------------------------|
----------------------------|---------------------------|
----------------------------|-----7--6-----7--6---------|
--0--3S--2--0--3S--2--1--0--|--0--------0--------0-0-1--|


  E  E  E  E  E  E  S S S S    E  E  E  E  E  E  S S E   
----------------------------|---------------------------|
----------------------------|---------------------------|
-----7--6-----7--6--3---2---|-----7--6-----7--6---------|
--0--------0----------4---3-|--0--------0--------0-0-1--|


                                  |-3-|       |-3-|       |-3-|  
  E  E   E  E  E   E  E  E     E  S S S E  E  S S S E  E  S S S  
----------------------------|-----------------------------------|
----------------------------|-----------------------------------|
----------------------------|--5--------3--5--------3--6--------|
--0--3S--2--0--3S--2--1--0--|-----0-0-0-------0-0-0-------0-0-0-|


                 |-3-|          |-3-|                       
  E  E  E  E  E  S S S E  E     S S S E  E  E  E  E  E  E   
-----------------------------|-----------------------------|
-----------------------------|-----------------------------|
--5--1--3--4--5--------3--5--|--------3--6--5--3--6--5--3--|
-----------------0-0-0-------|--0-0-0----------------------|


     |-3-|       |-3-|       |-3-|                   |-3-|        
  E  S S S E  E  S S S E  E  S S S    E  E  E  E  E  S S S E  E   
-----------------------------------|-----------------------------|
-----------------------------------|-----------------------------|
--5--------3--5--------3--6--------|--5--1--3--4--5--------3--5--|
-----0-0-0-------0-0-0-------0-0-0-|-----------------0-0-0-------|


  |-3-|       |-3-|                   |-3-|       |-3-|       |-3-|  
  S S S E  E  S S S E  E  E  E     E  S S S E  E  S S S E  E  S S S  
--------------------------------|-----------------------------------|
--------------------------------|-----------------------------------|
--------1--3--------------------|--5--------3--5--------3--6--------|
--0-0-0-------0-0-0-3--4--3--1--|-----0-0-0-------0-0-0-------0-0-0-|


                 |-3-|          |-3-|                       
  E  E  E  E  E  S S S E  E     S S S E  E  E  E  E  E  E   
-----------------------------|-----------------------------|
-----------------------------|-----------------------------|
--5--1--3--4--5--------3--5--|--------3--6--5--3--6--5--3--|
-----------------0-0-0-------|--0-0-0----------------------|


     |-3-|       |-3-|       |-3-|                   |-3-|        
  E  S S S E  E  S S S E  E  S S S    E  E  E  E  E  S S S E  E   
-----------------------------------|-----------------------------|
-----------------------------------|-----------------------------|
--5--------3--5--------3--6--------|--5--1--3--4--5--------3--5--|
-----0-0-0-------0-0-0-------0-0-0-|-----------------0-0-0-------|


  |-3-|       |-3-|                                                           
  S S S E  E  S S S E  E  E  E                             H        H         
--------------------------------|-----|-----|-----|-----|--------------------|
--------------------------------|-----|-----|-----|-----|--------------------|
--------1--3--------------------|-----|-----|-----|-----|-----------3--------|
--0-0-0-------0-0-0-3--4--3--1--|-----|-----|-----|-----|--0-----------------|


  Q    Q    H           H        H           Q    Q    Q    Q     
---------------------|--------------------|----------------------|
---------------------|--------------------|----------------------|
------------4--------|-----------3--------|------------2----1----|
--0----0-------------|--0-----------------|--0----0--------------|


  H        H           Q    Q    H           H        H         
--------------------|---------------------|--------------------|
--------------------|---------------------|--------------------|
-----------3--------|------------4--------|-----------3--------|
--0-----------------|--0----0-------------|--0-----------------|


  Q    Q    H           H        H           Q    Q    H         
---------------------|--------------------|---------------------|
---------------------|--------------------|---------------------|
------------2--------|-----------3--------|------------4--------|
--0----0-------------|--0-----------------|--0----0-------------|


  H        H           Q    Q    Q    Q                                     
--------------------|----------------------|-------|-------|-------|-------|
--------------------|----------------------|-------|-------|-------|-------|
-----------3--------|------------2----1----|-------|-------|-------|-------|
--0-----------------|--0----0--------------|-------|-------|-------|-------|


  Q    E  E  E  E  E  E     E  E  E  E  E  E  E  E     E  E  E  E  E  E  E  E   
-------------------------|--------------------------|--------------------------|
-------------------------|--------------------------|--------------------------|
-------------------------|--------------------------|--------------------------|
--0----0--0--0--0--0--0--|--0--0--0--0--0--0--0--0--|--4--4--4--4--4--4--4--4--|


  W                                                                       
  W                    Q    E  E  E  E  E  E     E  E  E  E  E  E  E  E   
--------------------|-------------------------|--------------------------|
--------------------|-------------------------|--------------------------|
--------------------|-------------------------|--------------------------|
--2~----------------|--0----0--0--0--0--0--0--|--0--0--0--0--0--0--0--0--|


                             |--3--|  |--3--|  |--3--|  |--3--|   
  E  E  E  E  E  E  E  E     E  E  E  E  E  E  E  E  E  E  E  E   
--------------------------|--------------------------------------|
--------------------------|--------------------------------------|
--------------------------|--7--5--4-----------7--5--4-----------|
--6--6--6--6--6--6--6--6--|-----------7--5--4-----------7--5--4--|


  Q    E  E  E  E  E  E     E  E  E  E  E  E  E  E     E  E  E  E  E  E  E  E   
-------------------------|--------------------------|--------------------------|
-------------------------|--------------------------|--------------------------|
-------------------------|--------------------------|--------------------------|
--0----0--0--0--0--0--0--|--0--0--0--0--0--0--0--0--|--4--4--4--4--4--4--4--4--|


  E  E  E  E  E  E  E  E     H        H           Q    Q    H         
--------------------------|--------------------|---------------------|
--------------------------|--------------------|---------------------|
--------------------------|-----------3--------|------------4--------|
--2--2--2--2--2--2--2--2--|--0-----------------|--0----0-------------|


  H        H           Q    Q    H           H        H         
--------------------|---------------------|--------------------|
--------------------|---------------------|--------------------|
-----------3--------|------------2--------|-----------3--------|
--0-----------------|--0----0-------------|--0-----------------|


  Q    Q    H           H        H           Q    Q    Q    Q     
---------------------|--------------------|----------------------|
---------------------|--------------------|----------------------|
------------4--------|-----------3--------|------------2----1----|
--0----0-------------|--0-----------------|--0----0--------------|


  Q    E  E  E  E  E  E     E  E  E  E  E  E  E  E     E  E  E  E  E  E  E  E   
-------------------------|--------------------------|--------------------------|
-------------------------|--------------------------|--------------------------|
-------------------------|--------------------------|--------------------------|
--0----0--0--0--0--0--0--|--0--0--0--0--0--0--0--0--|--6--6--6--6--6--6--6--6--|


  |--3--|  |--3--|  |--3--|  |--3--|                             
  E  E  E  E  E  E  E  E  E  E  E  E     Q    E  E  E  E  E  E   
--------------------------------------|-------------------------|
--------------------------------------|-------------------------|
-----------4--5--4--7--5--4-----------|-------------------------|
--4--5--7--------------------7--5--4--|--0----0--0--0--0--0--0--|


                                                        W                  
  E  E  E  E  E  E  E  E     E  E  E  E  E  E  E  E     W                  
--------------------------|--------------------------|--------------------|
--------------------------|--------------------------|--------------------|
--------------------------|--------------------------|--------------------|
--0--0--0--0--0--0--0--0--|--4--4--4--4--4--4--4--4--|--2~----------------|


  Q    E  E  E  E  E  E     E  E  E  E  E  E  E  E     E  E  E  E  E  E  E  E   
-------------------------|--------------------------|--------------------------|
-------------------------|--------------------------|--------------------------|
-------------------------|--------------------------|--------------------------|
--0----0--0--0--0--0--0--|--0--0--0--0--0--0--0--0--|--6--6--6--6--6--6--6--6--|


  |--3--|  |--3--|  |--3--|  |--3--|                             
  E  E  E  E  E  E  E  E  E  E  E  E     Q    E  E  E  E  E  E   
--------------------------------------|-------------------------|
--------------------------------------|-------------------------|
--7--5--4-----------7--5--4-----------|-------------------------|
-----------7--5--4-----------7--5--4--|--0----0--0--0--0--0--0--|


  E  E  E  E  E  E  E  E     E  E  E  E  E  E  E  E   
--------------------------|--------------------------|
--------------------------|--------------------------|
--------------------------|--------------------------|
--0--0--0--0--0--0--0--0--|--4--4--4--4--4--4--4--4--|


                                |-3-|       |-3-|       |-3-|  
  E  E  E  E  E  E  E  E     E  S S S E  E  S S S E  E  S S S  
--------------------------|-----------------------------------|
--------------------------|-----------------------------------|
--------------------------|--5--------3--5--------3--6--------|
--2--2--2--2--2--2--2--2--|-----0-0-0-------0-0-0-------0-0-0-|


                 |-3-|          |-3-|                       
  E  E  E  E  E  S S S E  E     S S S E  E  E  E  E  E  E   
-----------------------------|-----------------------------|
-----------------------------|-----------------------------|
--5--1--3--4--5--------3--5--|--------3--6--5--3--6--5--3--|
-----------------0-0-0-------|--0-0-0----------------------|


     |-3-|       |-3-|       |-3-|                   |-3-|        
  E  S S S E  E  S S S E  E  S S S    E  E  E  E  E  S S S E  E   
-----------------------------------|-----------------------------|
-----------------------------------|-----------------------------|
--5--------3--5--------3--6--------|--5--1--3--4--5--------3--5--|
-----0-0-0-------0-0-0-------0-0-0-|-----------------0-0-0-------|


  |-3-|       |-3-|                   |-3-|       |-3-|       |-3-|  
  S S S E  E  S S S E  E  E  E     E  S S S E  E  S S S E  E  S S S  
--------------------------------|-----------------------------------|
--------------------------------|-----------------------------------|
--------1--3--------------------|--5--------3--5--------3--6--------|
--0-0-0-------0-0-0-3--4--3--1--|-----0-0-0-------0-0-0-------0-0-0-|


                 |-3-|          |-3-|                       
  E  E  E  E  E  S S S E  E     S S S E  E  E  E  E  E  E   
-----------------------------|-----------------------------|
-----------------------------|-----------------------------|
--5--1--3--4--5--------3--5--|--------3--6--5--3--6--5--3--|
-----------------0-0-0-------|--0-0-0----------------------|


     |-3-|       |-3-|       |-3-|                   |-3-|        
  E  S S S E  E  S S S E  E  S S S    E  E  E  E  E  S S S E  E   
-----------------------------------|-----------------------------|
-----------------------------------|-----------------------------|
--5--------3--5--------3--6--------|--5--1--3--4--5--------3--5--|
-----0-0-0-------0-0-0-------0-0-0-|-----------------0-0-0-------|


  |-3-|       |-3-|                                          
  S S S E  E  S S S E  E  E  E     E  E  E  E  E  E  S S E   
--------------------------------|---------------------------|
--------------------------------|---------------------------|
--------1--3--------------------|-----7--6-----7--6---------|
--0-0-0-------0-0-0-3--4--3--1--|--0--------0--------0-0-1--|


  E  E  E  E  E  E  S S S S    E  E  E  E  E  E  S S E   
----------------------------|---------------------------|
----------------------------|---------------------------|
-----7--6-----7--6--3---2---|-----7--6-----7--6---------|
--0--------0----------4---3-|--0--------0--------0-0-1--|


  E  E   E  E  E   E  E  E     E  E  E  E  E  E  S S E   
----------------------------|---------------------------|
----------------------------|---------------------------|
----------------------------|-----7--6-----7--6---------|
--0--3S--2--0--3S--2--1--0--|--0--------0--------0-0-1--|


  E  E  E  E  E  E  S S S S    E  E  E  E  E  E  S S E   
----------------------------|---------------------------|
----------------------------|---------------------------|
-----7--6-----7--6--3---2---|-----7--6-----7--6---------|
--0--------0----------4---3-|--0--------0--------0-0-1--|


                                  |-3-|       |-3-|       |-3-|  
  E  E   E  E  E   E  E  E     E  S S S E  E  S S S E  E  S S S  
----------------------------|-----------------------------------|
----------------------------|-----------------------------------|
----------------------------|--5--------3--5--------3--6--------|
--0--3S--2--0--3S--2--1--0--|-----0-0-0-------0-0-0-------0-0-0-|


                 |-3-|          |-3-|                       
  E  E  E  E  E  S S S E  E     S S S E  E  E  E  E  E  E   
-----------------------------|-----------------------------|
-----------------------------|-----------------------------|
--5--1--3--4--5--------3--5--|--------3--6--5--3--6--5--3--|
-----------------0-0-0-------|--0-0-0----------------------|


     |-3-|       |-3-|       |-3-|                   |-3-|        
  E  S S S E  E  S S S E  E  S S S    E  E  E  E  E  S S S E  E   
-----------------------------------|-----------------------------|
-----------------------------------|-----------------------------|
--5--------3--5--------3--6--------|--5--1--3--4--5--------3--5--|
-----0-0-0-------0-0-0-------0-0-0-|-----------------0-0-0-------|


  |-3-|       |-3-|                                          
  S S S E  E  S S S E  E  E  E     E  E  E  E  E  E  S S E   
--------------------------------|---------------------------|
--------------------------------|---------------------------|
--------1--3--------------------|-----7--6-----7--6---------|
--0-0-0-------0-0-0-3--4--3--1--|--0--------0--------0-0-1--|


  E  E  E  E  E  E  S S S S    E  E  E  E  E  E  S S E   
----------------------------|---------------------------|
----------------------------|---------------------------|
-----7--6-----7--6--3---2---|-----7--6-----7--6---------|
--0--------0----------4---3-|--0--------0--------0-0-1--|


  E  E   E  E  E   E  E  E     E  E  E  E  E  E  S S E   
----------------------------|---------------------------|
----------------------------|---------------------------|
----------------------------|-----7--6-----7--6---------|
--0--3S--2--0--3S--2--1--0--|--0--------0--------0-0-1--|


  E  E  E  E  E  E  S S S S    E  E  E  E  E  E  S S E   
----------------------------|---------------------------|
----------------------------|---------------------------|
-----7--6-----7--6--3---2---|-----7--6-----7--6---------|
--0--------0----------4---3-|--0--------0--------0-0-1--|


  E  E   E  E  E   E  E  E     Q    Q    S S S S S S S S  
----------------------------|----------------------------|
----------------------------|------------8-8-8-8-7-7-7-7-|
----------------------------|--2----2--------------------|
--0--3S--2--0--3S--2--1--0--|----------------------------|


  Q    Q    S S S S S S  S  S    Q    Q    S S S S S S S S  
------------------------------|----------------------------|
------------8-8-7-7-8-8-10-10-|------------8-8-8-8-7-7-7-7-|
--3----3----------------------|--2----2--------------------|
------------------------------|----------------------------|


  Q    E  S S E  E  E   E     Q    Q    S S S S S S S S  
---------------------------|----------------------------|
----------8-8-8--7--8--10--|------------8-8-8-8-7-7-7-7-|
--3----3-------------------|--2----2--------------------|
---------------------------|----------------------------|


  Q    Q    S S S S S S  S  S    Q    Q    S S S S S S S S  
------------------------------|----------------------------|
------------8-8-7-7-8-8-10-10-|------------8-8-8-8-7-7-7-7-|
--3----3----------------------|--2----2--------------------|
------------------------------|----------------------------|


  E  S S E  E  E  S S E  E     E  S S Q    S S S S S S S S  
----------------------------|------------------------------|
------------2--1--1-1-1--1--|--2--2-2-2----2-2-------------|
--3--3-3-3------------------|------------------2-2---------|
----------------------------|----------------------3-3-1-1-|


  E  S S E  S S E  E  E   E     E  S S Q    S S S S S S S S  
-----------------------------|------------------------------|
-----------------------------|--2--2-2-2----2-2-------------|
-----------------------------|------------------2-2---------|
--1--1-1-1--8-8-8--7--8--10--|----------------------3-3-1-1-|


  E  S S E  E  E  S S E  E     E  S S Q    S S S S S S S S  
----------------------------|------------------------------|
----------------------------|--2--2-2-2----2-2-------------|
----------------------------|------------------2-2---------|
--1--1-1-1--5--4--4-4-4--4--|----------------------3-3-1-1-|


  E  S S E  S S E  E  E   E     E  S S Q    S S S S S S S S  
-----------------------------|------------------------------|
-----------------------------|--2--2-2-2----2-2-------------|
-----------------------------|------------------2-2---------|
--1--1-1-1--8-8-8--7--8--10--|----------------------3-3-1-1-|


  E  S S E  E  E  S S E  E     E  S S E  E  E  S S E  E    
----------------------------|----------------------------||
----------------------------|----------------------------||
----------------------------|--3--3-3-3------------------||
--1--1-1-1--5--4--4-4-4--4--|------------3--4--4-4-4--4--||




Duration Legend
---------------
W - whole
H - half
Q - quarter
E - 8th
S - 16th
T - 32nd
X - 64th
. - note dotted
|-n-|  - n-tuplets


Tablature Legend
----------------
L - tied note
x - dead note
g - grace note
(n) - ghost note
> - accentuded note
NH - natural harmonic
AH - artificial harmonic
TH - tapped harmonic
SH - semi harmonic
PH - pitch harmonic
h - hammer on
p - pull off
b - bend
br - bendRelease
pb - preBend
pbr - preBendRelease
brb - bendReleaseBend
\n/ - tremolo bar dip
\n - tremolo bar dive
-/n - tremolo bar Release up
/n\ - tremolo bar inverted dip
/n - tremolo bar return
-\n - tremolo bar Release down
S - shift slide
s - legato slide
/ -  slide into from below or out of upwards
\ -  slide into from above or out of downwards
~ - vibrato
W - wide vibrato
tr - trill
TP - tremolo picking
T - tapping
S - slap
P - pop
< - fade in
^ - brush up
v - brush down

            
            
Suggest correction
Creating personal tab
Creating personal tab
You can edit any tab online and save it as your Personal.

You can edit, replace or remove any tab part or add personal notes – all changes will be seen only by you.

Personal tabs can be accessed anytime from any device, even offline.
Learn more »
Give kudos to tab author, rate the tab!
1 2 3 4 5
comments
print report bad tab
guest
You may want to rate the tab now too:
select rating
Wanna post a correction for this tab? Suggest correction