Oops, an error
Loading. Please wait.

You Never Know tab

3,294 views 9 this week
1 commentread comment
1 2 3 4 5
x 5
add to favorites
×
Save as Personal and add changes to this tab that will be seen only by you. Learn more ›
×
You can save this tab as Personal to edit and correct it or add notes. All changes will be seen only by you. Learn more »
launch autoscroll
font size
0
reset
how to read this tab
guitar tuner
edit
Autoscroll
slow
fast
+/-
esc
set tempo
stop
Author
Difficulty
Immortal Technique - You Never know
Album: Revolutionary Vol. 2
Tuning: Standard

This is my 1st tab. Please forgive me if I have anything wrong, email 
me because I'd like to have this song figured out completely 
accurately! :D (E-mail: theonenamedabel@gmail.com)


e|------------------|----------------|-------------------------------|
B|-11/13\11(pick again after sliding back)-|--------------11\10------|
G|-12/14\12(pick again after sliding back)-|-17-17-15-14--12\10------|
D|------------------|----------------|-------------------------------|
A|------------------|----------------|-------------------------------|
E|------------------|----------------|-------------------------------|

e|---------------------|----------------|-17-15-13-12-------------------|
B|-10-10-10-10-10/11\8-|-11\10-10\8-----|-------------------------------|
G|---------------------|-12\10-10\9-----|-------------------------------|
D|---------------------|----------------|-------------------------------|
A|---------------------|----------------|-------------------------------|
E|---------------------|----------------|-------------------------------|

          After that last last part on the high E string you simply repeat 
          throughout the entire song! I hope this is somewhat accurate! 
          Let me know in the comments or email me!
h
| / slide up
| \ slide down
| h hammer-on
| p pull-off
| ~ vibrato
| + harmonic
| x Mute note
| b = bend
| r = release

            
            
Suggest correction
Creating personal tab
Creating personal tab
You can edit any tab online and save it as your Personal.

You can edit, replace or remove any tab part or add personal notes – all changes will be seen only by you.

Personal tabs can be accessed anytime from any device, even offline.
Learn more »
comments
print report bad tab
1 comment total.
0 reply
JamTHale 10 Jan 17, 2016 01:24 PM

think the last two slides is this instead
----------------
-13\11-10\8-----
-14\12-10\9-----
----------------
----------------
----------------

guest
You may want to rate the tab now too:
select rating
Wanna post a correction for this tab? Suggest correction