Oops, an error
Loading. Please wait.

Goodnight And Go Tab

4,674 views 1 this week
1 commentread comment
1 2 3 4 5
2 more votes to show rating
add to favorites
launch autoscroll
font size
0
reset
how to read this tab
guitar tuner
Autoscroll
slow
fast
+/-
esc
set tempo
stop
Help us to improve Ultimate-Guitar.com Take our survey!
×
Author
Difficulty
novice
|**********************Goodnight and Go Intro***********************|

INTRO:

     ,   .   .        ,   .   ,        ,   .   ,        ,   .   ,
|---1-------1----|---2-------2----|---1-------1----|----------------|
|-----2-------2--|-----2-------2--|-----2-------2--|---2---1--------|
|1-------1-1-----|1-------1-1-----|1-------1-1-----|1---------------|
|----------------|----------------|----------------|----------------|
|----------------|----------------|----------------|----------------|
|----------------|----------------|----------------|----------------|

or:

     ,   .   .        ,   .   ,        ,   .   ,        ,   .   ,
|----------------|----------------|----------------|----------------|
|---6-------6----|---7-------7----|---6-------6----|----------------|
|-----6-------6--|-----6-------6--|-----6-------6--|---6---5--------|
|6-------6-6-----|6-------6-6-----|6-------6-6-----|6---------------|
|----------------|----------------|----------------|----------------|
|----------------|----------------|----------------|----------------|

If I wasn't so pathetic I would have more of the song figured out, but no one else seems 
have done anything so I've posted what I have. If someone has a good ear and some time, 
here:
http://www.youtube.com/watch?v=uz0Wm7R_jdQ
and post your results on UG!!!
Suggest correction
Give kudos to tab author, rate the tab!
1 2 3 4 5
comments
print report bad tab
1 comment total.
0 reply
Slunksleaze 10 Jan 21, 2011 11:23 PM

ive been pretty much listening to the intro over and i think the part that comes after the part you showed of the intro goes like this (i havent watched any vids so it might be ****ed up)
e-----2------------1-----------
B--------4-----------2---------
G--3--------3---1----------6-5-
D-----------------------4-----6
A------------------------------
E------------------------------

after that i think it repeats starting at how you started it for maybe 2 rounds although it might just be one....good tab though...you definitrly got started on the right foot...now if could figure out the chords that would be something

guest
You may want to rate the tab now too:
select rating
Wanna post a correction for this tab? Suggest correction