Oops, an error
Loading. Please wait.

Hide And Seek Tab

version 1
version 1

Whole song

Interactive

17,742 views 1 this week
no commentswrite comment
1 2 3 4 5
please rate
add to favorites
launch autoscroll
font size
0
reset
how to read this tab
guitar tuner
Autoscroll
slow
fast
+/-
esc
set tempo
stop
Help us to improve Ultimate-Guitar.com Take our survey!
×
Difficulty
novice
this is my first chord diagram i made, and it's easy to play. it uses about 5 chords and 
the easiest ones. i'll do the start of the song and the rest should be prety easy to 
out

                        ?
|3---------2--------------------3-----2---------------------3----2---|
|----------3---1--------1-------------3-------1--------1---------3---|
|----------2---2----------------------2-------2------------------2---|
|--------------2--------2---------------------2--------2-------------|
|2----------------------3-------2----------------------3----2--------|
|3------------------------------3---------------------------3--------|
 Where are we. What the hell is going on. the dust has only just begun
|-----------------------------3--------2----------------3-------3----|
|--------------1----------------------3------------------------2-----|
|-------------------------------------2------------------------3-----|
|---2----------2------------------------------2----------------------|
|---2----------3--------------2---------------2--------2-------------|
|-----------------------------3------------------------3-------------|
 to fall. crop circles on the carpet. sinking feeling. spin me round
|-----------------2-----------------------------------3---2----------|
|----------1------3-----------------------1---------------3----------|
|-----------------2---------------------------------------2----------|
|2---------2-------------------------2----2--------------------------|
|2---------3-------------------------2----3-----------2--------------|
|-----------------------------------------------------3--------------|
 again and rub my eyes this can't be happening. when busy streets a
|-------------------------------3----------2------------3--------2---|
|----------1-------------------------------3---------------------3---|
|------------------------------------------2---------------------2---|
|2---------2-------------------------------------2-------------------|
|2---------3--------------------2----------------2------2------------|
|-------------------------------3-----------------------3------------|
 mess with people would stop to hold their heads heavy. *hide and seek
|----------------------------3--------------------------3----2-------|
|1-------------------------------------------------1---------3-------|
|------------------------------------------------------------2-------|
|2----------2--------------------------------------2-----------------|
|3----------2----------------2---------------------3----2------------|
|----------------------------3--------------------------3------------|
 trains and sewing machines. all those years. they were here first*
|3----2---------------------------3--------2-------------------------|
|-----3---------------1--------------------3------------1------------|
|-----2------------------------------------2-------------------------|
|-----------2---------2----------------------------2----2------------|
|2----------2---------3-----------2----------------2----3------------|
|3--------------------------------3----------------------------------|
 oily marks appear on walls where pleasure moments hung before the
|3----2----------------------------------3----2----------------------|
|-----3-------------------1-------------------3----------------------|
|-----2---------------------------------------2----------------------|
|--------------2----------2-------------------------2----------------|
|2-------------2----------3--------------2----------2----------------|
|3---------------------------------------3---------------------------|
 takeover, the sweeping insensitivity of this still life (then chords
in * as before but different lyrics)

the rest just uses those chords and isn't hard to work out, have a go!
here are the rest of the lyrics

hide and seek
trains and sewing machines (oh, you won't catch me around here)
blood and tears (hearts)
they were here first

Mmmm whacha say,
Mmmm that you only meant well?
well of course you did
Mmmm whacha say,
Mmmm that its all for the best?
of course it is
Mmmm whacha say?
Mmmm that it's just what we need
you decided this
Mmmm whacha say?
Mmmm what did she say?

ransom notes keep falling out your mouth
mid-sweet talk, newspaper word cut outs
speak no feeling no i don't believe you
you don't care a bit,
you don't care a bit

(hide and seek)
ransom notes keep falling out your mouth
mid-sweet talk, newspaper word cut outs

(hide and seek)
speak no feeling no i don't believe you
you don't care a bit,
you don't care a (you don't care a) bit

(hide and seek)
oh no, you don't care a bit
oh no, you don't care a bit

(hide and seek)
oh no, you don't care a bit
you don't care a bit
you don't care a bit
Suggest correction
Give kudos to tab author, rate the tab!
1 2 3 4 5
comments
print report bad tab
guest
You may want to rate the tab now too:
select rating
Please do not post tabs as comments. Select "correction" instead!