Oops, an error
Loading. Please wait.

Hide And Seek Tab

version 3
version 3

Whole song

Interactive

8,300 views 1 this week
3 commentsread comments
1 2 3 4 5
x 3
add to favorites
launch autoscroll
font size
0
reset
how to read this tab
guitar tuner
Autoscroll
slow
fast
+/-
esc
set tempo
stop
Help us to improve Ultimate-Guitar.com Take our survey!
×
Author
Difficulty
novice
The tab before this one wasn't too bad except it had a quite a few mistakes
so i just made the corrections and a few changes.Please rate and comment. Thank you:D

e|------------------------------------------------------------------------|
B|------------------------------------------------------------------------|
G|---------------------------------------------4-1-----2------------------|
D|----------------------------------------2-2------2------4-2-0-----------|
A|---------------------------------------------------4----------4-5br-0---|
E|-5--0-4---4--2-5--7-5--0-4--0-4--5-4-2----------------------------------|

e|------------------------------------------------------------------------|
B|------------------------------------------------------------------------|
G|-----------------------------------------------------------4-1-------2--|
D|------------------------------------------------------2-2------2--------|
A|-2/7-------------------------------------------------------------4-4----|
E|------2/9-/5----5--0-7--5-4--5-2--5-5--0-7--5-4--7-5--------------------|

e|-----------------------------------------------------5--4/9--9/2--------|
B|-------------------------10~--9~---------------7------------------------|
G|----------------------------------9~---9-7-6/9---6----------------------|
D|-4-2-0-0----------------------------------------------------------------|
A|---------4-0--2/9-------------------------------------------------------|
E|-------------------2/9--------------------------------------------------|

e|------------------------------------------------------------------------|
B|-5-3--------------------------------------------------------------------|
G|-----6-4----------------------------------------------------------2-----|
D|------------------2-------------------------------2-2/11/9--2-----------|
A|--------------------4------------------------4/5--------------4-4-------|
E|----------5--0-7-------2/5-/2--5-5--7-7--5-7----------------------------|

e|------------------------------------------------------------5/12-12/19--|
B|-------------------------10~--9~--------------7-7-----------------------|
G|----------------------------------9~--9-7-6/9-----666-------------------|
D|-4-2-0-----------2-----------------------------------666----------------|
A|-------4-0--0-0----4~/5----------------------------------7--------------|
E|------------------------------------------------------------------------|

e|-16/9-------------------------------------------------------------------|
B|-------5--3-----------------------5-7-7-5-------------------------------|
G|-------------6--4---------------6---------4-6--44-6-4-------------------|
D|--------------------4-7-6--4/2------------------------7/6--4-7-6--4/2---|
A|------------------------------------------------------------------------|
E|------------------------------------------------------------------------|

e|----------9/7-7--5-4-5--------------------------------------------------|
B|---5-7-7---------------5------------7-777/5---5-------------------------|
G|-6-----------------------------------------6/4--6-44-6-4----------------|
D|--------------------------4-7-6--4/2---------------------7/6--7-6-7/9/11|
A|------------------------------------------------------------------------|
E|------------------------------------------------------------------------|

e|-----------9/7-7~----5-5-5-5-44444-----------------5-5-557-44442--------|
B|-----5-6-7--------------------------7-7-7-7-55555-----------------------|
G|-9/6--------------------------------------------------------------------|
D|------------------------------------------------------------------------|
A|------------------------------------------------------------------------|
E|------------------------------------------------------------------------|

e|----------------5/12-4/12--9~--5/12-4/12--9~--5/12-4/12--9~--5/12-4/12--|
B|-77777-7-5-555----------------------------------------------------------|
G|------------------------------------------------------------------------|
D|------------------------------------------------------------------------|
A|------------------------------------------------------------------------|
E|------------------------------------------------------------------------|

e|-9~--10~--0~-----|
B|----------2~-----|
G|----------2~-----|
D|----------2~-----|
A|----------0~-----|
E|-----------------|
Suggest correction
Give kudos to tab author, rate the tab!
1 2 3 4 5
comments
print report bad tab
3 comments total.
0 reply
MASTER JiMMY 570 Mar 22, 2010 03:33 PM

correction,

6th one down:


e|-16/9----------------------------------------------------|
B|-------5--3-----------------------5-7-7-5----------------|
G|-------------6-X4X--------------6---------4-6--44-6-4----|
D|--------------->6

0 reply
MASTER JiMMY 570 Mar 22, 2010 03:35 PM

okay it stuffed up, but basically, play the G# (D|--6--) instead of the regular B (G|--4--) to lead into the chorus

0 reply
MASTER JiMMY 570 Mar 22, 2010 03:36 PM

e|-16/9-------------------------------------------------------------------|
B|-------5--3-----------------------5-7-7-5-------------------------------|
G|-------------6------------------6---------4-6--4-66-4-------------------|
D|----------------6---4-7-7--7/2------------------------7/6--4-7-6--4/2---|
A|------------------------------------------------------------------------|
E|------------------------------------------------------------------------|

guest
You may want to rate the tab now too:
select rating
Wanna post a correction for this tab? Suggest correction