Oops, an error
Loading. Please wait.

Burst Command Til War Bass

237 views 3 this week
no commentswrite comment
1 2 3 4 5
3 more votes to show rating
add to favorites
launch autoscroll
font size
0
reset
guitar tuner
Autoscroll
slow
fast
+/-
esc
set tempo
stop
Author
Tuning
E A D G
Band: Impaled Nazarene
Song: Burst Command Til War
Tuning: Standard 4 string 

Intro / Main Riff

G|-----------------------------|
D|-----------------------------|
A|-22222/3-222---0-22222/3-222-|
E|-------------3---------------|

  Guitar 1

G|-----------------------------|
D|-----------------------------|
A|-22222/3-222---0-22222/3-222-|
E|-------------3---------------|
 
 Rpt Main Riff 2 X

 Verse

G|---------------------------------------------------------------------|
D|---------------------------------------------------------------------|
A|-22222222222222-000000000000000-222222222222222----------------------|
E|------------------------------------------------3333333333333333-(3)-|

 Rpt Main Riff 2 X
 Rpt Verse
 Rpt Main Riff 4 X
 Rpt Verse
 Rpt Main Riff 5 X
 
G|-----------------------------------|
D|-----------------------------------|
A|-22222/3-222---0-22222/3-222-------|
E|-------------3---------------3-(3)-|

 Rpt Main Riff 5 X


G|-----------------------------------|
D|-----------------------------------|
A|-22222/3-222---0-22222/3-222-------|
E|-------------3---------------3-(3)-|

 Ending.  

G|--------------------------------------------------------------------|
D|--------------------------------------------------------------------|
A|-22222222222222222222222222222222222222222222222-2--2--2--2---2---2-|
E|--------------------------------------------------------------------|

G|--------------------------------------------------------------------|
D|-22222222222222222222222222222222222222222222222-2--2--2--2---2---2-|
A|-00000000000000000000000000000000000000000000000-0--0--0--0---0---0-|
E|--------------------------------------------------------------------|

G|--------------------------------------------------------------------|
D|-66666666666666666666666666666666666666666666666-4--4--4--4---4---4-|
A|-44444444444444444444444444444444444444444444444-6--6--6--6---6---6-|
E|--------------------------------------------------------------------|


G|-----------------|
D|-6------(6)------|
A|-4------(4)------|
E|-----------------|

End.
Suggest correction
Give kudos to tab author, rate the tab!
1 2 3 4 5
comments
print report bad tab
guest
You may want to rate the tab now too:
select rating
Wanna post a correction for this tab? Suggest correction