Oops, an error
Loading. Please wait.

Cogito Ergo Sum Tab

version 1
version 1

Whole song

Interactive

466 views 1 this week
no commentswrite comment
1 2 3 4 5
please rate
add to favorites
launch autoscroll
font size
0
reset
how to read this tab
guitar tuner
Autoscroll
slow
fast
+/-
esc
set tempo
stop
Help us to improve Ultimate-Guitar.com Take our survey!
×
Artist: Impaled Nazarene
Title:  Cogito Ergo Sum
Album:  Nihil

Tabbed by elc (elc@poczta.onet.pl;elc@o2.pl)

Intro
e|---------|
B|---------|
G|---------|
D|---------|
A|-2-2-2-2-|
E|-0-0-0-0-|
pm . . . .

Riff 1, tremolo picking,
e|---------------------------------|
B|---------------------------------|
G|---------------------------------|
D|-9-1112119---11--9-12--119-109-7-|
A|-7-9-109-7-129---7-10129-7-8-7-5-|
E|-----------10--------10----------|

Riff 2, tremolo picking,
e|-----------------------------------------------------------------|
B|-----------------------------------------------------------------|
G|-----------------------------------------------------------------|
D|---------------------------------------------9-9-10101010----9-9-|
A|---------------------------------7-7-7-7-1010------------1010----|
E|-0-0-0-0-0-0-0-0-0-0-0-0-0-0-0-0---------------------------------|

e|-----------------------------------------------------------------|
B|-----------------------------------------------------------------|
G|-----------------------------------------------------------------|
D|---------------------------------------------9-9-------------8-8-|
A|---------------------------------7-7-7-7-1010----7-7-7-7-1010----|
E|-0-0-0-0-0-0-0-0-0-0-0-0-0-0-0-0---------------------------------|

Riff 3, tremolo picking, second part notes are 11's not 1's,
e|-----------------------------------------------------------------|
B|-----------------------------------------------------------------|
G|-----------------------------------------------------------------|
D|-6-6-6-6-6-6-6-6-6-6-6-6-6-6-6-6---------------------------------|
A|-4-4-4-4-4-4-4-4-4-4-4-4-4-4-4-4---------4-4-7-7---------6-6-9-9-|
E|---------------------------------5-5-5-5---------7-7-7-7---------|

e|-----------------------------------------------------------------|
B|-----------------------------------------------------------------|
G|-----------------------------------------------------------------|
D|-6-6-6-6-6-6-6-6-6-6-6-6-6-6-6-6---------------------------------|
A|-4-4-4-4-4-4-4-4-4-4-4-4-4-4-4-4---------4-4-7-7---------6-6-9-9-|
E|---------------------------------5-5-5-5---------7-7-7-7---------|

e|-----------------------------------------------------------------|
B|-----------------------------------------------------------------|
G|---------------------------------9-9-9-9-6-6-9-9-111111118-8-1111|
D|-6-6-6-6-6-6-6-6-6-6-6-6-6-6-6-6---------------------------------|
A|-4-4-4-4-4-4-4-4-4-4-4-4-4-4-4-4---------------------------------|
E|-----------------------------------------------------------------|

e|-----------------------------------------------------------------|
B|-----------------------------------------------------------------|
G|---------------------------------9-9-9-9-6-6-9-9-111111118-8-1111|
D|-6-6-6-6-6-6-6-6-6-6-6-6-6-6-6-6---------------------------------|
A|-4-4-4-4-4-4-4-4-4-4-4-4-4-4-4-4---------------------------------|
E|-----------------------------------------------------------------|

Riff 4, second time use tremolo picking instead of palm muting,
e|-----------------------------------------------------------------|
B|-----------------------------------------------------------------|
G|---------------------------------------------------------9---11--|
D|-11------11------11------12--9---11------11------11------7---9---|
A|-9---9-9-9---9-9-9---9-9-10--7---9---9-9-9---9-9-9---9-9---------|
E|-----------------------------------------------------------------|
       . .     . .     . .             . .     . .     . .
e|-----------------------------------------------------------------|
B|-----------------------------------------------------------------|
G|-----------------------------------------------------------------|
D|-11------11------11------12--9---11------11----------9-------7---|
A|-9---9-9-9---9-9-9---9-9-10--7---9---9-9-9---9-9-7-7-7---5-5-5---|
E|-----------------------------------------------------------------|
       . .     . .     . .             . .     . . . .     . .

Riff 5, watch for the timing,
e|-----------------------------------------------------------------|
B|-----------------------------------------------------------------|
G|-----------------------------------------------------------------|
D|-9---------------9---12129---12129---------------7---5-5-7---5-5-|
A|-7---------------7---12107---10107-----------7-7-5---3-3-5---3-3-|
E|-----------------------------------------------------------------|
pm .                               .           . .

Riff 6, tremolo picking,
e|-----------------------------------------------------------------|
B|-----------------------------------------------------------------|
G|-----------------------------------------------------------------|
D|-9-9-9-9-9-9-9-9-9-9-9-9-9-9-9-9-12121212121212121212121212121212|
A|-7-7-7-7-7-7-7-7-7-7-7-7-7-7-7-7-10101010101010101010101010101010|
E|-----------------------------------------------------------------|

e|-----------------------------------------------------------------|
B|-----------------------------------------------------------------|
G|-----------------------------------------------------------------|
D|-9-9-9-9-9-9-9-9-9-9-9-9-9-9-9-9-7-7-7-7-7-7-7-7-7-7-7-7-7-7-7-7-|
A|-7-7-7-7-7-7-7-7-7-7-7-7-7-7-7-7-5-5-5-5-5-5-5-5-5-5-5-5-5-5-5-5-|
E|-----------------------------------------------------------------|

e|-----------------------------------------------------------------|
B|-----------------------------------------------------------------|
G|-----------------------------------------------------------------|
D|-5---------------9---------------5---------------9---------------|
A|-3---------------7---------------3---------------7---------------|
E|-----------------------------------------------------------------|

e|-----------------------------------------------------------------|
B|-----------------------------------------------------------------|
G|-----------------------------------------------------------------|
D|-5-------------------------------8-------------------------------|
A|-3-------------------------------6-------------------------------|
E|-----------------------------------------------------------------|
pm .

Riff7,
e|-----------------------------------------------------------------|
B|-----------------------------------------------------------------|
G|-----------------------------------------------------------------|
D|-9-------------------------------------------9-9-------------8-8-|
A|-7-------------------------------7-7-7-7-1010----7-7-7-7-1010----|
E|-0---------------------------------------------------------------|
   .
e|-----------------------------------------------------------------|
B|-----------------------------------------------------------------|
G|-----------------------------------------------------------------|
D|-9-------------------------------------------9-9-------------8-8-|
A|-7-------------------------------7-7-7-7-1010----7-7-7-7-1010----|
E|-0---------------------------------------------------------------|
   .
e|-----------------------------------------------------------------|
B|-----------------------------------------------------------------|
G|-----------------------------------------------------------------|
D|-9---9---9---9---9-----------------------------------------------|
A|-7---7---7---7---7-----------------------------------------------|
E|-0---0---0---0---0-----------------------------------------------|
   .   .   .   .   .
Suggest correction
Give kudos to tab author, rate the tab!
1 2 3 4 5
comments
print report bad tab
guest
You may want to rate the tab now too:
select rating
Please do not post tabs as comments. Select "correction" instead!