Oops, an error
Loading. Please wait.

Somewhere Over The Rainbow tab

version 1
version 1

Whole song

Interactive

17,295 views 18 this week
no commentswrite comment
1 2 3 4 5
x 6
add to favorites
×
Save as Personal and add changes to this tab that will be seen only by you. Learn more ›
×
You can save this tab as Personal to edit and correct it or add notes. All changes will be seen only by you. Learn more »
launch autoscroll
font size
0
reset
how to read this tab
guitar tuner
edit
Autoscroll
slow
fast
+/-
esc
set tempo
stop
Author
-----------------------------------------------------------------------------
SOMEWHERE OVER THE RAINBOW - CHRIS IMPELLITTERI
-----------------------------------------------------------------------------
Tabbed by - chucknorris
Anthonyp.13@hotmail.com

Tuning - standard
Diffuculty - Intermediate-expert
Another good song without a perfect tab... here it is 100% Correct


e|----------14---11------11-12/-------------12---------------4b----------------|
B|-------17----------1214--------\5---12h14----12/--\3h5p3p2-----9p0-5-7-9-10/-|
G|-9---------------------------------------------------------------------------|
D|-----------------------------------------------------------------------------|
A|-----------------------------------------------------------------------------|
E|-----------------------------------------------------------------------------|
            AH                        
e|-------------------------------------12-12br--11-7-9-11-12/-----------12-----|
B|/7-4-5-7--7brp5h7p5/4----5--4-----5-----------------------------12h14--------|
G|------------------------------4------------------------------\9--------------|
D|-----------------------------------------------------------------------------|
A|-----------------------------------------------------------------------------|
E|-----------------------------------------------------------------------------|
SUPER FAST======================================================================
e|------------------------------11-12-14-16-17-19------------------11-12-14-16-|
B|---------------------10-12-14---------------------------10-12-14-------------|
G|-------------9-11-13----------------------------9-11-13----------------------|
D|-----9-11-13-----------------------------------------------------------------|
A|-----------------------------------------------------------------------------|
E|-----------------------------------------------------------------------------|
   ====================|                                           AH
E|-17-19-16-16-14-12-11------------------4b---4-x-------------------------------|
B|----------------------14-12/-\3h5p3--2----------5-7-9-10/7-4-5-7-7br-5h7p5/4h5|
G|------------------------------------------------------------------------------|
D|------------------------------------------------------------------------------|
A|------------------------------------------------------------------------------|
E|------------------------------------------------------------------------------|
                   PS               PS                       PS
E|-----7--4h7p4h7/4h7p4-7/--5h7p5h7/5-7-5-7/-9-11~-7-4h7p4h7/4h7p4-7/----------|
B|-4p0-------------------------------------------------------------------------|
G|-----------------------------------------------------------------------------|
D|-----------------------------------------------------------------------------|
A|-----------------------------------------------------------------------------|
E|-----------------------------------------------------------------------------|
          PS                 SCRAPE
E|-6h9p6h9/6-9-6-9/-11---14--x/----------------12--12br-11---7-9-11-12/--------|
B|---------------------------x/-x/----------5-----------------------------12s14|
G|---------------------------x/-x/-x/-----------------------------------9------|
D|------------------------------x/-x/------------------------------------------|
A|---------------------------------x/------------------------------------------|
E|-----------------------------------------------------------------------------|
                                            AH
E|-12-----------------4b---4----------------------------------------------12-19|
B|----12/----\3h5p3/2---------5-7--7/9--10--7--4-5-7-7br-5h7p5/4h5-4---/5------|
G|-------------------------------------------------------------------4---------|
D|-----------------------------------------------------------------------------|
A|-----------------------------------------------------------------------------|
E|-----------------------------------------------------------------------------|

E|-11----9-11-12/----7/9--12------------------4b---4---------------------------|
B|----12-----------5---------12/----\3h5p3/2---------5-7-7/9--10-7--4-5-7------|
G|-----------------------------------------------------------------------------|
D|-----------------------------------------------------------------------------|
A|-----------------------------------------------------------------------------|
E|-----------------------------------------------------------------------------|
  AH                                SUPER FAST=================================|
E|---------------------------11b--------------------12-16-19p16-------19-21b---|
B|-7brp5h7p5/4h5-----4---------------------------12-------------17-16----------|
G|---------------------4/---------------------13-------------------------------|
D|------------------------------------------9----------------------------------|
A|-----------------------------------7-7-11------------------------------------|
E|-----------------------------------------------------------------------------|
                           |====================================================
E|-21b----19-21-21b-21br-21~---------------------------11-12-14-16-17-19-19----|
B|-----19-------------------------------------10-12-14----------------------14-|
G|------------------------------------9-11-13----------------------------------|
D|----------------------------9-11-13------------------------------------------|
A|-----------------------------------------------------------------------------|
E|-----------------------------------------------------------------------------|
  =============================================================================
E|--------------11-12-14-16-17-19-19-16-16-14-12-9-----------------------------|
B|-12-12-12-14-------------------------------------14-12-10---------------10-12|
G|----------------------------------------------------------13-11-9-11-13------|
D|-----------------------------------------------------------------------------|
A|-----------------------------------------------------------------------------|
E|-----------------------------------------------------------------------------|
  ==|                          T      T         T     T    T     T    
E|----11~--12~-----4-6-4-------------------------------------------------------|
B|14------------5----------7b-15-p7b--14-p7b---15-p7-12-p7-12-p7-10-p7~--------|
G|-----------------------------------------------------------------------------|
D|-----------------------------------------------------------------------------|
A|-----------------------------------------------------------------------------|
E|-----------------------------------------------------------------------------|
                                                      SUPER FAST================
E|--------------------------------9--------------------------------------------|
B|-5h7p5/4h5--4--------0------2------4---0---0----5----------------------------|
G|---------------4------------------------------------------------------9-11-12|
D|------------------4-----4----------------4-------------------9h10p9-7--------|
A|----------------------------------------------------9h10p9-7-----------------|
E|-----------------------------------------------------------------------------|
================================================================================
E|----------10-12-14-15-17-17-------------------10-12-14-15-17-17--------------|
B|-10-12-13----------------------------10-12-13---------------------------10-12|
G|-----------------------------9-11-12----------------------------9-11-12------|
D|-----------------------------------------------------------------------------|
A|-----------------------------------------------------------------------------|
E|-----------------------------------------------------------------------------|
 =========================================================== T =================
E|---10-12-14-15-17-17-14-14-12-12--20~-19~---------7-12h15-19p15p12-7----12-15|
B|13-----------------------------------------------8------------------8--------|
G|------------------------------------------------9--------------------9-------|
D|-----------------------------------------------9----------------------9------|
A|-------------------------------------------7h10------------------------------|
E|-----------------------------------------------------------------------------|
  =============================================================================
E|19-12-15-19-12-15-19--12-10-12~-----21b--17-20-17-20-17-20-------12-14-15-12-|
B|-----------------------------------------------------------13-13-------------|
G|-----------------------------------------------------------------------------|
D|-----------------------------------------------------------------------------|
A|-----------------------------------------------------------------------------|
E|-----------------------------------------------------------------------------|

  =============================================================================
E|-------12-14-17-19-0----------------10-12-14-15-17-15-14-12-10---------------|
B|-14-15---------------10-12-10-12-14----------------------------13-12-10------|
G|------------------------------------------------------------------------12-9-|
D|-----------------------------------------------------------------------------|
A|-----------------------------------------------------------------------------|
E|-----------------------------------------------------------------------------|
  =============================================================================
E|-----------------12------7-12-7----7-8---------------------------------------|
B|---------10-10-10-------8-------8-8-----8--10-8-7-8--7----------5------------|
G|-12-12-12--------------9---------9-----9-9----------9-7-9-5-7--9-7~~---------|
D|---------------------10------------------------------------------------9~~---|
A|-----------------------------------------------------------------------------|
E|-----------------------------------------------------------------------------|
 ==============================================================================
E|----------------------------10-12-14-15-17-----------------10-12-14-15-17-17-|
B|--------------------10-12-13-----------------------10-12-13------------------|
G|------------9-11-12------------------------9-11-12---------------------------|
D|-------10-9------------------------------------------------------------------|
A|-10-12-----------------------------------------------------------------------|
E|-----------------------------------------------------------------------------|
 ==============================================================================
E|-14-14-12-10------19~--15-13-12---------17-17-15-14-12-10-9-12-19-17-15-14-12|
B|-------------12-10-------------15-13-12--------------------------------------|
G|-----------------------------------------------------------------------------|
D|-----------------------------------------------------------------------------|
A|-----------------------------------------------------------------------------|
E|-----------------------------------------------------------------------------|
 ======|      CHORUS
E|14-15-21b----------12-11--7-9-11-12-----7/9--12-7-----------4b--4------------|
B|----------------12-------------------5-------------3h5p3/2--------5-7-9--10--|
G|-------------9---------------------------------------------------------------|
D|-----------------------------------------------------------------------------|
A|-----------------------------------------------------------------------------|
E|-----------------------------------------------------------------------------|
  AH
E|---------------------------------------------12--11--7-9-11--12---------12---|
B|-7---4-5-7--7brp5h7p5/4--5~---4~----------12----------------------12/14----12|
G|----------------------------------4/x---9-----------------------9------------|
D|-----------------------------------------------------------------------------|
A|-----------------------------------------------------------------------------|
E|-----------------------------------------------------------------------------|
                                   AH      AH
E|-------------4b~---4---------------------------------------------------------|
B|--\3h5p3/2------------5-7-9--10~--7--4-5-7brp5h7p5/4--5~--4--4\1/9-9--7br-5--|
G|-----------------------------------------------------------------------------|
D|-----------------------------------------------------------------------------|
A|-----------------------------------------------------------------------------|
E|-----------------------------------------------------------------------------|
                                                                     AH
E|--------------9-7-6-4h6p4---4-----9------------------------------------------|
B|-----5-7-7brb-------------8---7h8---8-7-5-7b-7---5-7-5-7brp5/4h5~---5--------|
G|-4-6-------------------------------------------6----------------------6-4--4-|
D|--------------------------------------------------------------------------6--|
A|-----------------------------------------------------------------------------|
E|-----------------------------------------------------------------------------|

E|-----------7b-9-7-6-4h6p4---4-----9-------7------------------------------7brb|
B|--------------------------8---7h8---8p7p5---8p7----5p4--------------5-7-5----|
G|-------4/6~---------------------------------------------4---4/6---6----------|
D|-6/4-2----------------------------------------------------4------------------|
A|-----------------------------------------------------------------------------|
E|-----------------------------------------------------------------------------|
    T      T    T     T                             SUPER FAST=================
E|-------------------------------------------12brbrb-------------7-12-12-14-17-|
B|--15-p7-14-p7-12-p7-10--p7--7p5h7p5/4h5~~---------------------8--------------|
G|-------------------------------------------------------------9---------------|
D|----------------------------------------------------7-9-10-9-----------------|
A|-----------------------------------------------------------------------------|
E|-----------------------------------------------------------------------------|
 ==============================================================================
E|-14---------8-10-12-14-15-17-17-----7--7-8-10-12-14-15-17-17-14-14-12-10-12--|
B|---8-8-10-12--------------------8--8-10--------------------------------------|
G|----9-----------------------------9------------------------------------------|
D|-----------------------------------------------------------------------------|
A|-----------------------------------------------------------------------------|
E|-----------------------------------------------------------------------------|
 ============================= T ======================= T =====================
E|-14-19-19b-----------7-12h15-19p15p12----------7-12h15-19p15p12--12brb--19br-|
B|--------------------8----------------8--------8------------------------------|
G|-------------------9------------------9------9-------------------------------|
D|------------------9--------------------9----9--------------------------------|
A|--------------7h10----------------------7h10---------------------------------|
E|-----------------------------------------------------------------------------|
 ==============================================================================
E|-17-19-15-19-14-19-17-19-15-14-15-12-12p10---10-12-14--15-17---------------9-|
B|-------------------------------------------11----------------------8-10-12---|
G|-------------------------------------------------------------7-9-11----------|
D|-----------------------------------------------------------------------------|
A|-----------------------------------------------------------------------------|
E|-----------------------------------------------------------------------------|
===============================================================================
E|-10-12-14-15-17-14-14-12-10------------------------------7-12-7-5------------|
B|----------------------------12-10-8-----8-10-12~~~------8---------8-7-8-5-7-5|
G|-------------------------------------11----------------9-------------------7-|
D|-----------------------------------------------------10----------------------|
A|-----------------------------------------------------------------------------|
E|-----------------------------------------------------------------------------|
 ==============================================================================
E|--------------------------------------10-12-14-15-17-17-------------------10-|
B|-----------------------------10-12-13----------------------------10-12-13----|
G|-5/4~~-------4-5-7---9-11-12-----------------------------9-11-12-------------|
D|-------4-5-7-----------------------------------------------------------------|
A|-----------------------------------------------------------------------------|
E|-----------------------------------------------------------------------------|
 ==============================================================================
E|-12-14-15-17-17-------------------10-12-14-15-17-17------------------10-12-14|
B|-------------------------10-12-13---------------------------10-12-14---------|
G|-----------------9-11-12----------------------------9-11-12------------------|
D|-----------------------------------------------------------------------------|
A|-----------------------------------------------------------------------------|
E|-----------------------------------------------------------------------------|

========================================|
E|-15-17-17-14-14-12-10-12-19b-19brbrbrbr------12-12brp11~-7-9-11-12~----------|
B|-------------------------------------------12--------------------------------|
G|-----------------------------------------9-----------------------------------|
D|-----------------------------------------------------------------------------|
A|-----------------------------------------------------------------------------|
E|-----------------------------------------------------------------------------|
                                                          AH
E|---------12----------------------4b~--4/-------------------------------------|
B|---12/14----12~--x-x-x-3h5p3/2~-----------5-7/9-10-7-4-5-7-7brp5h7p5/4--5-4--|
G|-9--------------------------------------------------------------------------4|
D|-----------------------------------------------------------------------------|
A|-----------------------------------------------------------------------------|
E|-----------------------------------------------------------------------------|

E|---12-19--11-7-9-11-12/----------12-------------4b~--4~----------------------|
B|---------------------------12/14----12-3h5p3/2----------5-7/9-10-7-4-5-7~----|
G|-9-----------------------9---------------------------------------------------|
D|-----------------------------------------------------------------------------|
A|-----------------------------------------------------------------------------|
E|-----------------------------------------------------------------------------|
  AH
E|----------------------|
B|-7brp5h7p5/4---5~~~~~-|
G|----------------------|
D|----------------------|
A|----------------------|
E|----------------------|


AH - Artificial Harmonics
PS - Tap pick on fret, then slide pick up the fretboard
Super Fast===| - Fast until =|
T - Tap
Suggest correction
Creating personal tab
Creating personal tab
You can edit any tab online and save it as your Personal.

You can edit, replace or remove any tab part or add personal notes – all changes will be seen only by you.

Personal tabs can be accessed anytime from any device, even offline.
Learn more »
comments
print report bad tab
guest
You may want to rate the tab now too:
select rating
Wanna post a correction for this tab? Suggest correction