Oops, an error
Loading. Please wait.

Requiem On Water tab

16,667 views 15 this week
no commentswrite comment
1 2 3 4 5
x 10
add to favorites
×
Save as Personal and add changes to this tab that will be seen only by you. Learn more ›
×
You can save this tab as Personal to edit and correct it or add notes. All changes will be seen only by you. Learn more »
launch autoscroll
font size
0
reset
how to read this tab
guitar tuner
edit
Autoscroll
slow
fast
+/-
esc
set tempo
stop
Hi there!  This is another good song from the
Breaking Dawn Part 1 Soundtrack!  This tab is super 
easy and so simple, a great beginners tab:)


    ***************Have fun!***************** 


Here is the picking pattern for each chord.
It's very simple and I didn't do the pattern 
throughout because I didn't think it was 
necessary because of the simplicity of this 
tab:)  


         C
e|---------------------|
B|---------------------|
G|-------0----0----0---| 
D|---------------------| and so forth...
A|----3----3----3------|
E|---------------------|

         F
e|---------------------|
B|---------------------|
G|-------2----2----2---|
D|---------------------| and so forth...
A|----3----3----3------|
E|---------------------|

         Am/F
e|---------------------|
B|---------------------|
G|------2---2---2------|  
D|----3---3---3--------| and so forth...
A|---------------------|
E|---------------------|


Standard Tuning
No Capo


Intro
C

C
Slow we paddle through the lake
                     F
Straight to the very center
               C
Of the darkest water
Where we can embrace
The shadows on the surface
                      F
The eyes that look up lifeless
                 C
From our twins below

    Am/f
And though your arms and legs are under
C
Love will be the echo in your 
Am/F
Ears when all is lost to plunder
C
My love will be there still


C
True it's chilling to behold
                    F
Up close we stumble backwards 
                C
Laughing in our boat 'til
The image sinks away 
To someplace far but certain
                 F
A land of new suspension 
                      C
Where someday we must go 


    Am/F
And though your arms and legs are under
C
Love will be the echo in your 
Am/F
Ears when all is lost to plunder
C
My love will be there still




     C             Am/F                   C
e|---------------------------------------------------------|
B|------1---------1--------1-------------1-------1---------|
G|---2----------2---2----2---2---------2---2---2---2-------|
D|--------------3------3---------------0-----0-------------|
A|---------------------------------------------------------|
E|---------------------------------------------------------|
             
               Am/F
               Though your arms and legs are under
               C
               Love will be the echo in your 


         Am/F                   C
e|--------------------------------------------------|
B|--------1--------1-------------1------------------|
G|------2---2----2---2---------2---2----------------|
D|------3-----3--------3-------0-----0--------------|
A|-------------------------------------3------------|
E|--------------------------------------------------|

        Am/F
        Ears when all is lost to plunder
           C
        My love will be there still





Have fun and RATE:)
cristy♥twilight



Suggest correction
Creating personal tab
Creating personal tab
You can edit any tab online and save it as your Personal.

You can edit, replace or remove any tab part or add personal notes – all changes will be seen only by you.

Personal tabs can be accessed anytime from any device, even offline.
Learn more »
comments
print report bad tab
guest
You may want to rate the tab now too:
select rating
Wanna post a correction for this tab? Suggest correction