Oops, an error
Loading. Please wait.

Abismos En El Cielo Tab

by Imperio
76 views 1 this week
no commentswrite comment
1 2 3 4 5
3 more votes to show rating
add to favorites
×
Save as Personal and add changes to this tab that will be seen only by you. Learn more ›
×
You can save this tab as Personal to edit and correct it or add notes. All changes will be seen only by you. Learn more »
save as personal
new!
launch autoscroll
font size
0
reset
how to read this tab
guitar tuner
Autoscroll
slow
fast
+/-
esc
set tempo
stop
ABISMOS EN EL CIELO
Imperio


e|-----------------------------------------------------
b|-----------------------------------------------------
g|-----------------------------------------------------
D|--6-------------------9--/6-4-6~-6-4-----/11-11--8-9-
A|--4--7-6-7~--7-6-4----7--------------7----9---9--6-7-
E|-------------------5-------------------7-------------
P.M.           ^ ^ ^ ^             ^ ^ ^ ^

e|----------------------------------------------------------------
b|-----------------------------------------7-----7------4----5----
g|-----------------------------------------9(11)-9(11)--6(8)-7(9)-
D|-6-------------------9--/6-4-6~-6-4-----------------------------
A|-4--7-6-7~--7-6-4----7--------------7---------------------------
E|-------------------5------------------7-------------------------
P.M.          ^ ^ ^  ^            ^ ^ ^ ^

e|------------------------------------------------------
b|------------------------------------------------------
g|---------------6------------------------6-------------    (x2) 
D|-----------6-7---7-6----------------6-7---7-6---------  cada vez 
A|---4-6-7-9-----------9-7-6--4-6-7-9-----------9-7-6-4-  más rápido
E|------------------------------------------------------
P.M. ..................................................

e|-----------------------------------------------------------------------------
b|-----------------------------------------------------------------------------
g|-6-6666--4--2-2222--6--4-4444--2--1-111---2-2222--1111--------6666--5555-6-/8-
D|-7-7777--6--4-4444--7--6-6666--4--2-2222~-4-4444--2222--5555--7777--6666-7-/9-
A|--------------------------------------------------------6666-----------------
E|-----------------------------------------------------------------------------


e|-5^2------2--8^5-------5--11^8------11--14^11------11------
b|-----4---4-------7---7--------10--10---------13--13---/14~-
g|-------5-----------8------------11-------------14----------  con
D|-----------------------------------------------------------  Sweep Picking
A|-----------------------------------------------------------
E|-----------------------------------------------------------

              F#m                       B
Ya no hay más tiempo de volver atrás y cómo haré
          E                            A
ya no podré escapar ni despertar del sueño aquel
           D                  G#                   C#m    C#7
que tuve tiempo atrás, perdoname(perdoname) y librame del mal... 


y sé...
que en esta noche brilla una señal, se comprender
que en esta vida no es subliminal y deja que
un sueño sideral, por una vez(por una vez) quiero vivir en paz

A        B     
 Abismos en el cielo
E      C#m
 angelical infierno
F#m 
 ahora es tiempo
G#
 de despertar

Despierto de este sueño
en mi sagrado imperio
grito a los vientos
MI libertad

(sigue punteo)
Suggest correction
Give kudos to tab author, rate the tab!
1 2 3 4 5
comments
print report bad tab
guest
Wanna post a correction for this tab? Suggest correction