Oops, an error
Loading. Please wait.

Eres Chords

by Imperio
56 views 1 this week
no commentswrite comment
1 2 3 4 5
3 more votes to show rating
add to favorites
×
Save as Personal and add changes to this tab that will be seen only by you. Learn more ›
×
You can save this tab as Personal to edit and correct it or add notes. All changes will be seen only by you. Learn more »
save as personal
new!
launch autoscroll
font size
0
reset
transpose
0
reset
simplify chords
display chords
guitar tuner
Autoscroll
slow
fast
+/-
esc
set tempo
stop
Strumming
There is no strumming pattern for this song yet. and get +5 IQ
ERES - YOU ARE (The Magic)
Imperio


INTRO: F#m E D C# C#7

  F#m                                          E                                           \
e|-------------------------------------------|-------------------------------------------| |
b|-------------------------------------------|-------------------------------------------| |
g|-------------------------------------------|-------------------------------------------| |
D|---4-4-4-2-2-2-----------------------------|---2-2-2-----------------------------------| |
A|-4------------5-5-5-4-4-4-2-2-2----------2-|-2------5-5-5-4-4-4-2-2-2------------------| |
E|-2-----------------------------5-5-5-4-5---|-0-----------------------5-5-5-4-4-4-2-4-5-| |
                                                                                           |   (x2)
    D                   D                      C#         C#7                              |
e|-----------------------------------------------------------------|                       |
b|-----------------------------------------------------------------|                       |
g|-2--------------------2------------------------------1b2-1-------|                       |
D|-0--------------------0----------------------------------------2-|                       |
A|---5-5-5-4-4-4-2-2-2----5-5-5-4-4-4-2-2-2----4-4b5-4-------4-5---|                       |     
E|--------------------5--------------------5-----------------------|                       |        
                       
                                                                    /
Punteo sobre acordes Intro.


F#m                           E
Ser! no hay victorias sin esfuerzo
            D                  C#
penas y derrotas, glorias y triunfos
F#m                         E
Jugar! sos la llave del destino
            D                  C#
libre albedrío, alquimia del azar

A
Eres el fuego, la luz, el agua,
    E
el viento, la fuerza del mar
        F#m
Eres la magia y estela
             E
del astro errante, buscando lugar...

A
No dejes que aten tus manos
 E                F#m
puedes ver que el sol
          D C#
sale para vos

No dejes que aten... + Intro x1 + (Punteo en Intro)


Muchos que conforman
el sainete, us ojos han cerrado
no sueñan ni en morir

Nosotros, que apostamos a los sueños
luchamos por hacerlos
ganar, perder, vivir


Eres el fuego, la luz, el agua.
el viento, la fuerza del mar
Eres la magia y estela
del astro errante, buscando lugar...


No dejes que aten tus manos
puedes ver que el sol
sale para vos.
Suggest correction
Give kudos to tab author, rate the tab!
1 2 3 4 5
comments
print report bad tab
guest
Wanna post a correction for this tab? Suggest correction