Oops, an error
Loading. Please wait.

Eres Tab

99 views 1 this week
no commentswrite comment
1 2 3 4 5
3 more votes to show rating
add to favorites
launch autoscroll
font size
0
reset
how to read this tab
guitar tuner
×
Best way to learn
"Eres"
Autoscroll
slow
fast
+/-
esc
set tempo
stop
Este es el punteo que se toca en la intro (00:24) y en
algunas partes más.

|---------------------------------------------|
|-------------9---10-12--------10---9-10------|
|--9b11---------------------------------------|
|---------------------------------------------|
|---------------------------------------------|
|---------------------------------------------|


|-------------------------------------------------------------|
|--9----------------9b10---9-10---------12b14--12--10--12--9--|
|------11-9---------------------------------------------------|
|-------------------------------------------------------------|
|-------------------------------------------------------------|
|-------------------------------------------------------------|


ESTRIBILLO


  Eres    el    fuego,    la luz,    el agua,
|--------------------------------------------------|
|--------------------------------------------------|
|-----------------2-------------------------2------|
|-----------------2-------------------------2------|
|-0-0-0-0-0-0-0-0-0---------0-0-0-0-0-0-0-0-0------|
|--------------------------------------------------|
  . . . . . . . .           . . . . . . . .

    el viento    y   la     fuerza    del    mar
|--------------------------------------------------------|
|--------------------------------------------------------|
|--------------------------------------------------------|
|--------------------------------------------------------|
|--------------------2---------------------------2-------|
|--------------------2---------------------------2-------|
|----0-0-0-0-0-0-0-0-0-----------0-0-0-0-0-0-0-0-0-------|
     . . . . . . . .             . . . . . . . .


   Eres   la     magia   y  estela    del  astro
|--------------------------------------------------|
|--------------------------------------------------|
|--------------------------------------------------|
|-----------------4-------------------------4------|
|-----------------4-------------------------4------|
|-2-2-2-2-2-2-2-2-2---------2-2-2-2-2-2-2-2-2------|
  . . . . . . . .           . . . . . . . .


   errante buscando un lugar
|--------------------------------------------------------|
|--------------------------------------------------------|
|----7-------7-------7-------7-------7-------7-------7---|
|----7-------7-------7-------7-------7-------7-------7---|
|----5-5-5-5-5-5-5-5-5-5-5-5-5-5-5-5-5-5-5-5-5-5-5-5-5---|
|--------------------------------------------------------|
       . . .   . . .   . . .   . . .   . . .   . . .


   No   dejes   que   aten   tus   manos.
|--------------------------------------------------|
|--------------------------------------------------|
|--------------------------------------------------|
|--------------------------------------------------|
|-7-----------7--------------8---7---5---7---------|
|-5-5-5-5-5-5-5-5-5-5-5-5------5---5---5---5-------|
    . . . . .   . . . . .      .   .   .   .


  Puedes     ver
|--------------------------------------------------|
|--------------------------------------------------|
|--------------------------------------------------|
|--9-----------9--------------10---9---7---9-------|
|--7-7-7-7-7-7-7-7-7-7-7-7-------7---7---7---7-----|
|--------------------------------------------------|
     . . . . .   . . . . .       .   .   .   .


   Que     el    sol             sale
|--------------------------------------------------|
|--------------------------------------------------|
|-6-----------6------------------------------------|
|-4-4-4-4-4-4-4-4-4-4-4-4--------------------------|
|-----------------------------------0-2-4-0-2-4----|
|-------------------------------2-4----------------|


   para       todos
|-----------------------------2-3-5-2-3-5----------------|
|-------------------------3-5----------------------------|
|--------------------------------------------------------|
|---------4-5-7-4-5-7------------------------------------|
|-----5-7------------------------------------------------|
|--------------------------------------------------------|
Suggest correction
Give kudos to tab author, rate the tab!
1 2 3 4 5
comments
print report bad tab
guest
You may want to rate the tab now too:
select rating
Wanna post a correction for this tab? Suggest correction