Oops, an error
Loading. Please wait.

Para Ser Libre Chords

20 views 1 this week
no commentswrite comment
1 2 3 4 5
3 more votes to show rating
add to favorites
launch autoscroll
font size
0
reset
transpose
0
reset
display chords
guitar tuner
Autoscroll
slow
fast
+/-
esc
set tempo
stop
Help us to improve Ultimate-Guitar.com Take our survey!
×
 Eb                  Db
 Donde las aguas se separan
 Eb                         Db
 Donde el camino se abre en dos
B            Db        F#m  F#m/F    Eb
 Donde las almas se desangran, rojo sol
     B            Db
 Buscando algún lugar (Para ser libre)

 Donde las águilas contemplan
 El fuego eterno de su dios
 Donde los hombres, descarnan su corazón
 Buscando algún lugar, para ser libre


 F#m         Db
 Sal de la oscuridad
     Eb     Bb
 No es imposible
  B        F#m
 Suenan campanas
B            Db 
 Puedes ser libre

 Luz en algún lugar
 Tiempo sublime
 Tierra distante
 Donde uno vive
 Para ser libre

 Libre, muy libre


SOLO...

(sigue...)
   Ebm                                              Bbm  
e|-18-16-14----------------14----14-16-18-16-14--------------------------------------------
b|----------18-16-15-16-18----18----------------18--18-16-14----------------14----14-16-18-
g|-----------------------------------------------------------17-15-14-15-17----17----------
D|-----------------------------------------------------------------------------------------
A|----------------------------- Alternate Picking (rápido) --------------------------------
E|-----------------------------------------------------------------------------------------

   Db                                               Abm
e|-16-14-13----------------13----13-14-16-14-13--------------------------------------------
b|----------16-14-13-14-16----16----------------16--16-14-12----------------12----12-13-15-
g|-----------------------------------------------------------15-13-12-13-15----15----------
D|-----------------------------------------------------------------------------------------
A|------------------------------ Alternate Picking (rápido) -------------------------------
E|-----------------------------------------------------------------------------------------
Suggest correction
Give kudos to tab author, rate the tab!
1 2 3 4 5
comments
print report bad tab
guest
You may want to rate the tab now too:
select rating
Wanna post a correction for this tab? Suggest correction