Oops, an error
Loading. Please wait.

Paz En La Tormenta Tab

235 views 3 this week
no commentswrite comment
1 2 3 4 5
3 more votes to show rating
add to favorites
launch autoscroll
font size
0
reset
how to read this tab
guitar tuner
Autoscroll
slow
fast
+/-
esc
set tempo
stop
Help us to improve Ultimate-Guitar.com Take our survey!
×
Solo:

--------------------------------------------------------
----------------------------------------2--5h2--5(7)----
---4(6)------4--2p4h2--1--2--1--------------------------
----------------------------------/4--------------------
--------------------------------------------------------
--------------------------------------------------------


-------------------------------------------2--4--4(5)4--
---(7)--(7)--(7)5--3p5h3--2--3--2-------2---------------
-----------------------------------4~-------------------
--------------------------------------------------------
--------------------------------------------------------
--------------------------------------------------------


---2--4--4(5)4--2p4h2--2--------------------------------
-----------------------------5--3--2--3--5--3(5)3--2----
--------------------------------------------------------
--------------------------------------------------------
--------------------------------------------------------
--------------------------------------------------------


--------------------------------------------------------
--------------------------------------14--17h14---------
---4(6)4--2--2p4h2--1--2--1-----------------------------
--------------------------------2~----------------------
--------------------------------------------------------
--------------------------------------------------------

------------17-----------17-------------17--------------
---17(19)-------17(19)--------17(19)--------17(19)------
--------------------------------------------------------
--------------------------------------------------------
--------------------------------------------------------
--------------------------------------------------------


----------------17--14--------------------------14------
--------------------------17--14--17--14--17------------
---(teclado)--------------------------------------------
--------------------------------------------------------
--------------------------------------------------------
--------------------------------------------------------


--17--14---------------------14--17--14-----------------
---------17--14--17--14--17--------------17--14--17--14-
--------------------------------------------------------
--------------------------------------------------------
--------------------------------------------------------
--------------------------------------------------------


--------------------------------------------------------
---------14--17--14----------14--17--14-----------------
---16------------------16------------------16--14-------
--------------------------------------------------------
--------------------------------------------------------
--------------------------------------------------------


--------------------------------------------------------
--------------------------------------------------------
---16(18)--(18)--(18)--(18)16--14p16h14-----------------
--------------------------------------------------------
--------------------------------------------------------
--------------------------------------------------------


-------------------------------14p16p17h16h14-----------
-------------------------19---------------------14------
-----13--14--13--13~------------------------------------
--------------------------------------------------------
--------------------------------------------------------
--------------------------------------------------------


----14p16p17h16h14------------14p16p17h16h14------------
-----------------------19------------------------14-----
--------------------------------------------------------
--------------------------------------------------------
--------------------------------------------------------
--------------------------------------------------------


----14p16p17h16h14------------14p16p17h16h14------------
-----------------------15------------------------14-----
--------------------------------------------------------
--------------------------------------------------------
--------------------------------------------------------
--------------------------------------------------------


----14p16p17h16h14------------14p16p17h16h14------------
-----------------------15------------------------14-----
--------------------------------------------------------
--------------------------------------------------------
--------------------------------------------------------
--------------------------------------------------------


----14p16p17h16h14------------14p16p17h16h14------------
-----------------------17------------------------14-----
--------------------------------------------------------
--------------------------------------------------------
--------------------------------------------------------
--------------------------------------------------------


----14p16p17h16h14------------14p16p17h16h14------------
-----------------------17------------------------14-----
--------------------------------------------------------
--------------------------------------------------------
--------------------------------------------------------
--------------------------------------------------------


----14p16p17h16h14------14-------14-------14------------
------------------------15(17)---15(17)---15(17)--------
--------------------------------------------------------
--------------------------------------------------------
--------------------------------------------------------
--------------------------------------------------------


--------------------------------------------------------
----14-------14-------14--------------------------------
----16(18)---16(18)---16(18)----14p16--13~--------------
--------------------------------------------------------
--------------------------------------------------------
--------------------------------------------------------
Suggest correction
Give kudos to tab author, rate the tab!
1 2 3 4 5
comments
print report bad tab
guest
You may want to rate the tab now too:
select rating
Wanna post a correction for this tab? Suggest correction