Oops, an error
Loading. Please wait.

Prisionero Chords

by Imperio
39 views 1 this week
no commentswrite comment
1 2 3 4 5
3 more votes to show rating
add to favorites
launch autoscroll
font size
0
reset
transpose
0
reset
display chords
guitar tuner
×
Best way to learn
"Prisionero"
Autoscroll
slow
fast
+/-
esc
set tempo
stop
Aca esta p afinacion standar, pero en realidad la viola va afinada en Mib

Intro: x2
  G#                             E
------------------------------------------------------------------------
------------------------------------------------------------------------
------------------------------------------------------------------------
--6--9999-8-6-6666-9-8-<6>-9-8-6-----6--9999-8-6-6666-9-8-<6>--9-8-6----
---------------------------------9-7---------------------------------7--
------------------------------------------------------------------------
PM   ....     ....         .......      ....     ....          .......

 F#                            D#
----------------------------------------------------
----------------------------------------------------
----------------------------------------------------
----11111111-9-8-8888-11-9-<8>----------------------
--9-----------------------------66666666-/66666666--
--------------------------------66666666------------
PM  ........     ....           ........

G#
    Si te sientes prisionero
E
  solo es tu propio fantasma
F#                     D#
que sigue encadenado a ti
encadenado a ti

y tu propia cruz cargaste
tu cadavez arrastraste
hasta tu propia tumba
donde has de vivir asi

Intro

Sos verdugo de tu muerte
y has corrido igual suerte
el momento negro de elegir
entre vivir o morir

Esclavo de tu fracaso
tus errores o es que acaso
has olvidado que el culpable eres tu
y solamente tu, yeh!

G#                          F#
No podrás prevalecer en la historia
                E                   D#
no es dificl perder, nunca pudiste ganar
G#                          F#
No podrás prevalecer en la historia
                E                   D#
no es dificl perder, nunca pudiste ganar

G# F# E F# x2
Intro

Atormentado en tu holganza
hoy se inclina tu balanza
hacia el lado del mal y no del bien
y culpa mia no es

Hoy ya no te queda tiempo
tu camino se hizo lento
tu propio veneno matará
tu megalomanía

No podrás prevalecer en las historia
no es dificl perder, nunca pudiste ganar
No podrás prevalecer en las historia
no es dificil perder, nunca pudiste ganar

G# F# E D#
Intro x2
D# C# B A# G#        G# SOL#

Faltan algunos arreglos q no tenia ganas de transcribir, demasiado aporte hice
aguante el Power Nacional
Suggest correction
Give kudos to tab author, rate the tab!
1 2 3 4 5
comments
print report bad tab
guest
You may want to rate the tab now too:
select rating
Wanna post a correction for this tab? Suggest correction