Oops, an error
Loading. Please wait.

Connecticut Tab

version 1
version 1

Whole song

88 views 1 this week
no commentswrite comment
1 2 3 4 5
please rate
add to favorites
launch autoscroll
font size
0
reset
how to read this tab
guitar tuner
Autoscroll
slow
fast
+/-
esc
set tempo
stop
Help us to improve Ultimate-Guitar.com Take our survey!
×
Author

Artist: Impossibles
Song: Connecticut
Album: Return
Tabbed by: Dylan Slack

* = muted
pm = palm muted
b = bend
r = release bend

Intro

E:---------------------------------------|
B:---------------------------------------|
G:--------9-9----------------------------|
D:--5-5-5-9-9-9-9-9-10-10-10-10-2-2-4-4--|
A:--5-5-5-7-7-9-9-9-10-10-10-10-2-2-4-4--|
E:--3-3-3-----7-7-7--8--8--8--8-0-0-2-2--|

Verse

E:--------------------------------------------------|
B:--------------------------------------------------|
G:-------------5-5-5-----------------5-5-5-888-8-8--|
D:--5-5-5------5-5-5------2-2-2------5-5-5-888-8-8--|
A:--5-5-5------3-3-3------2-2-2------3-3-3-666-6-6--|
E:--3-3-3-----------------0-0-0---------------------|

Chorus

E:------------------------------------------------------------------------------------------------------|
B:------------------------------------------------------------------------------------------------------|
G:--5-5-5-5-5-5-5-5-----------------5-5-5-5-5-5-5-5-----------------5-5-5-5-5-5-5-5---------------------|
D:--5-5-5-5-5-5-5-5-5-5-5-5---------5-5-5-5-5-5-5-5-5-5-5-5---------5-5-5-5-5-5-5-5-5-3-2-2-2222-2222-2-|
A:--3-3-3-3-3-3-3-3-5-5-5-5---------3-3-3-3-3-3-3-3-5-5-5-5---------3-3-3-3-3-3-3-3-5-3-2-2-2222-2222-2-|
E:------------------3-3-3-3-3-5-3-0-----------------3-3-3-3-3-5-3-0-----------------3-1-0-0-0000-0000-0-|

Bridge

E:--------------------------3-3-3-3--|
B:--------------------------4-4-4-4--|
G:--------------------------5-5-5-5--|
D:--5-5-5-5-3-3-3-3-2-2-2-2-5-5-5-5--|
A:--5-5-5-5-3-3-3-3-2-2-2-2-3-3-3-3--|
E:--3-3-3-3-1-1-1-1-0-0-0-0----------|

End of Bridge

E:--333333333333----------|
B:--444444444444----------|
G:--555555555555-5-5-7-7--|
D:--555555555555-5-5-7-7--|
A:--333333333333-3-3-5-5--|
E:------------------------|


Song Order

Intro Palm muted x 2 unmute on E 2nd time through
Intro x 4
Verse x 4
Chorus
Intro x 2
Verse x 2 play staccato
Chorus
Bridge x 4 play smoothly on the 3rd and 4th time
End of Bridge
Intro x 4 last time through hold on C then play

E:---------------------|
B:---------------------|
G:-8-------------------|
D:-8-(hold)-5-5-5-555--|
A:-6--------5-5-5-555--|
E:----------3-3-3-333--|
Suggest correction
What's this?
You can suggest a correction to this tab. Community and Mods will review your correction and vote to approve or reject it.
comments
We did not receive enough feedback on this tab! Please rate:
print report bad tab
1 2 3 4 5
guest
You may want to rate the tab now too:
select rating
Please do not post tabs as comments. Select "correction" instead!