Oops, an error
Loading. Please wait.

The Taste Of Regret Tab

version 2
version 2

Intro

Whole song

Interactive

2,118 views 1 this week
1 commentread comment
1 2 3 4 5
accurate
x 3
add to favorites
launch autoscroll
font size
0
reset
how to read this tab
guitar tuner
Tab Pro tools
  • play this tab
  • loop segment
  • change instrument
  • show fretboard
  • metronome
Autoscroll
slow
fast
+/-
esc
set tempo
stop
Contributor
Artist - In Fear And Faith
Song - The Taste of regret
Tuning - Drop D[DADGBE]
Tabbed by : Dabeastvader
Cover: http://www.youtube.com/watch?v=BcUm8o7CuPQ





INTRO:



Screaming Part:
[Come out of hiding, show us your face] 
E|------------------------------|
B|-----8-8-8---------8-8-8------|
G|------------------------------|
D|-4~--4-4-4-----4~--4-4-4------| X2
A|-4~------------4~-------------|
D|-4~------------4~-------------|

[Don't be afraid of what they'll say]
E|------------------------------|
B|-----5-5-5---------5-5-5------|
G|------------------------------|
D|-0~--2-2-2-----0~--2-2-2------| X2
A|-0~------------0~-------------|
D|-0~------------0~-------------|

[Just close your eyes it'll all be ok]
E|------------------------------|
B|-----8-8-8---------8-8-8------|
G|------------------------------|
D|-4~--4-4-4-----4~--4-4-4------| X2
A|-4~------------4~-------------|
D|-4~------------4~-------------|

[The damage they've caused, is it worth it all?]
E|------------------------------------------|
B|-----5-5-5---------5-5-5---------5-5-5----|
G|------------------------------------------|
D|-0~--2-2-2-----0~--2-2-2-----0~--2-2-2----|
A|-0~------------0~------------0~-----------|
D|-0~------------0~------------0~-----------|


Piano:


 
Verse:
[What's taken away]
E|---------------------------------------|
B|---------------------------------------|
G|--------------------4------------------|
D|-----4----6-----7---------7----6----7--|
A|---------------------------------------|
D|-44----4----4----4----4----4----4------|
   ..    .    .    .    .    .    .       


[is the price they pay]
E|---------------------------------------|
B|---------------------------------------|
G|--------------------7-----4---------4--|
D|-----4----6-----7--------------7-------|
A|---------------------------------------|
D|-44----4----4----4----4----4----4------|
   ..    .    .    .    .    .    .  

[For goodness sake let it fade away]
E|------------------------------------------------|
B|------------------------------------------------|
G|------------------------------------------------|Im not sure abt this part, but it sounds good
D|------------------------------------------------|
A|-0~----------0~-----------2~---------2~---------|
D|-0~-00--0000-0~-00-0000---2~-22-2222-2~-22-2222-|
      ..  ....    .. ....      .. ....    .. ....

[Let go of the.. ]
E|---------------------------------------|
B|---------------------------------------|
G|--------------------4------------------|
D|-----4----6-----7---------7----6----7--|
A|---------------------------------------|
D|-44----4----4----4----4----4----4------|
   ..    .    .    .    .    .    .       


[ past, that tore you apart]
E|---------------------------------------|
B|---------------------------------------|
G|--------------------7-----4---------4--|
D|-----4----6-----7--------------7-------|
A|---------------------------------------|
D|-44----4----4----4----4----4----4------|
   ..    .    .    .    .    .    .  

[Embrace this chance for a brand new start]
E|------------------------------------------------|
B|------------------------------------------------|
G|------------------------------------------------|
D|------------------------------------------------|
A|-0~----------0~-----------2~---------2~---------|
D|-0~-00--0000-0~-00-0000---2~-22-2222-2~-22-2222-|
      ..  ....    .. ....      .. ....    .. ....

Pre chorus:
[We weren't meant to be one of them, but to live life, love and give.
They can't fool us anymore. We're far too clever.]
E|-------------------------------------------------|
B|-------------------------------------------------|
G|-------------------------------------------------| 
D|--777-7-77-7-777--999-9-99-9-999-----------------|continued...
A|--555-5-55-5-555--777-7-77-7-777-----------------|
D|-------------------------------------------------|


E|----------------------------------------------------------------------|
B|----------------------------------------------------------------------|
G|----------------------------------------------------------------------|
D|-13-13-13--13--13-13--13--13-13-13--14-14-14--14--14-14--14--14-14-14-|X2
A|--9--9--9---9---9--9---9---9--9--9--12-12-12--12--12-12--12--12-12-12-|
D|----------------------------------------------------------------------|

Chorus:

E|------------------------|
B|------------------------|
G|------------------------|
D|--4~~~-7~~~-0~~~-2~~~---| X2
A|--4~~~-7~~~-0~~~-2~~~---|
D|--4~~~-7~~~-0~~~-2~~~---|


Repeat the Screaming part,verse,Pre chorus and chorus


Breakdown Part:

E|---------------------------------------------------------------------|
B|---------------------------------------------------------------------|
G|---------------------------------------------------------------------|
D|--4-------------4-------------4-------------4------------------------| 
A|--4-444-44-444--4-444-44-444--4-------------4-444-44-444-------------|
D|--4-444-44-444--4-444-44-444--4-444-44-444--4-444-44-444-------------|
      ... .. ...    ... .. ...    ... .. ...    ... .. ...
Keep on repeating the breakdown part  till the end

comments
We did not receive enough feedback on this tab! Please rate:
print report bad tab
1 2 3 4 5
1 comment total.
0 reply
Dabeastvader wrote on April 10 2012, 02:26 am

Intro

------------------------------------
------------------------------------
-----------------4------------------
-----4---6---7-------7---6---7------
---4---4---4---4---4---4---4--------
-4----------------------------------

------------------------------------
------------------------------------
-----------------6---4--------------
-----4---6---7-----------7---6------
---4---4---4---4---4---4---4--------
-4----------------------------------

------------------------------------
------------------------------------
------------------------------------
-----0---2---4---6---4---2---4------
---0---0---0---0---0---0---0--------
-0----------------------------------

------------------------------------
------------------------------------
-------------------------4~---------
-----0---2---4---6---4--------------
---0---0---0---0---0---0------------
-0----------------------------------

I want to post or [tab]
guest
You may want to rate the tab now too:
select rating
Please do not post tabs as comments. Select "correction" instead!