Oops, an error
Loading. Please wait.

Calendar Notes Acoustic Tab

2,027 views 1 this week
1 commentread comment
1 2 3 4 5
accurate
x 3
add to favorites
launch autoscroll
font size
0
reset
how to read this tab
guitar tuner
Tab Pro tools
  • play this tab
  • loop segment
  • change instrument
  • show fretboard
  • metronome
×
Best way to learn
"Calendar Notes Acoustic"
Autoscroll
slow
fast
+/-
esc
set tempo
stop
Contributor
---------------------------------------------------------------------------
                   Calendar Notes (Acoustic) - In Friction
---------------------------------------------------------------------------
Tabbed by: Johnny
Email: clever-ruse@hotmail.com
Tuning: E Flat (half a step down)

http://www.infiction.com.au/

VERSE

And nothing's the same now. It's been a year, today. Since the faulter...
e|----------------2----3----------------2--------3-------------3---2-----|
B|----------------3----3----------------3--------3-------------3---3-----|
G|----------------0----0----------------0--------0-------------0---0-----|
D|----------------0----0----------------0--------0-------------2---2-----|
A|----------------3----3----------------3--------3-------------x---x-----|
E|----------------x----x----------------x--------x-------------x---x-----|

All my words have failed.
e|-----3----------2-------|
B|-----3----------3-------|
G|-----0----------0-------|
D|-----2----------2-------|
A|-----x----------x-------|
E|-----x----------x-------|

And nothing I learn, sticks. All mistakes, explained. But go un-sold...
e|------------2------3--------------2-------3----------------3--2------|
B|------------3------3--------------3-------3----------------3--3------|
G|------------0------0--------------0-------0----------------0--0------|
D|------------0------0--------------0-------0----------------2--2------|
A|------------3------3--------------3-------3----------------x--x------|
E|------------x------x--------------x-------x----------------x--x------|

Though she knows I've paid. More than I owe to her.
e|---------3----------2-----------------3---3--2---|
B|---------3----------3-----------------3---2--3---|
G|---------0----------0-----------------2---0--2---|
D|---------2----------2-----------------2---0--0---|
A|---------x----------x-----------------x---x--x---|
E|---------x----------x-----------------x---x--x---|

CHORUS

And I...   Can feel your heart. Pulsating through your hands...
e|------3------2---------3----------------3------------3---------------|
B|------3------3---------3----------------3------------3---------------|
G|------0------2---------0----------------2------------0---------------|
D|------2------0---------2----------------2------------2---------------|
A|------3------0---------2----------------0------------3---------------|
E|------x------x---------0----------------x------------x---------------|

Another day in silence. Well no news is good news isn't it?
e|------2--------------3---------------3-------------3----------|
B|------3--------------3---------------3-------------3----------|
G|------2--------------0---------------2-------------0----------|
D|------0--------------2---------------2-------------2----------|
A|------0--------------2---------------0-------------3----------|
E|------x--------------0---------------x-------------x----------|

And I can feel your heart. Pulsating through your hands. Your hands...
e|--------2---------3----------------3------------3-----------2-------|
B|--------3---------3----------------3------------3-----------3-------|
G|--------2---------0----------------0------------0-----------2-------|
D|--------0---------2----------------2------------2-----------0-------|
A|--------x---------2----------------0------------3-----------0-------|
E|--------x---------0----------------x------------x-----------x-------|


*The first chorus is actually picked with the 3rd, 4th and 5th strings palm muted. I haven't
figured out exactly how it's played but I just pick through the chorus chords above. I'll tab
out the way I play it here here, it's completely up to you whether to use it or not...

CHORUS 1 (G, D, and A strings are palm muted)

e|-----------------------------3-------------------------------3------|
B|-----3-------3-------3---------3-----3-------3-------3---------3----|
G|----0--0-0--2--2-2--0--0-0--3-3--3--0--0-0--2--2-2--0--0-0--3-3--3--|
D|---2--2-2--0--0-0--2--2-2--3----3--2--2-2--0--0-0--2--2-2--3----3---|
A|--3-------0-------2-------0-------3-------0-------2-------0---------|
E|--------------------------------------------------------------------|

*Don't palm mute this last bit...

e|----3-----2--|
B|-----3----3--|
G|------0---2--|
D|---2------0--|
A|--3----------|
E|-------------|

BRIDGE

And nothings the same...       Nothings the same...
e|---------------3-----3-----3----------------3-----3-----3-|
B|---------------3-----3-----3----------------3-----3-----3-|
G|---------------0-----2-----0----------------0-----2-----0-|
D|---------------x-----2-----2----------------x-----2-----2-|
A|---------------3-----0-----2----------------3-----0-----2-|
E|---------------x-----x-----0----------------x-----x-----0-|

FILL

e|--3-x-3--x--3-x-3--x----3------------------------------|
B|--3-x-3--x--3-x-3--x----2------------------------------|
G|--0-x-0--x--0-x-0--x----0------------------------------|
D|--x-x-0--x--0-x-0--x----0------------------------------|
A|--3-x-3--x--3-x-3--x----x------------------------------|
E|--x-x-x--x--x-x-x--x----x------------------------------|


      And it slipped right through...
e|-3---------2-------------------------|
B|-3---------3-------------------------|
G|-0---------2-------------------------|
D|-2---------0-------------------------|
A|-3---------x-------------------------|
E|-x---------x-------------------------|

     Yeah it slipped right through your hands
e|-3---------2--------------------------3------------|
B|-3---------3--------------------------3------------|
G|-0---------2--------------------------0------------|
D|-2---------0--------------------------2------------|
A|-2---------x--------------------------3------------|
E|-0---------x--------------------------x------------|

    Yeah it slipped right through...
e|----------2-------------3-----------|
B|----------3-------------3-----------|
G|----------2-------------0-----------|
D|----------0-------------2-----------|
A|----------x-------------0-----------|
E|----------x-------------x-----------|
       Right through your hands
e|-3--------------------------------3---------------|
B|-3--------------------------------3---------------|
G|-0--------------------------------0---------------|
D|-2--------------------------------2---------------|
A|-2--------------------------------3---------------|
E|-0--------------------------------x---------------|


| /  slide up
| \  slide down
| h  hammer-on
| p  pull-off
| ~  vibrato
| +  harmonic
| x  Mute note
===========================================================================
comments
We did not receive enough feedback on this tab! Please rate:
print report bad tab
1 2 3 4 5
1 comment total.
-1 reply
catherine91 wrote on April 24 2009, 10:14 pm

i can't tab music myself but i dont think this is right.
the strumming is very similar (good work) but definately the little solo at the end is very wrong.

I want to post or [tab]
guest
You may want to rate the tab now too:
select rating
Please do not post tabs as comments. Select "correction" instead!