Oops, an error
Loading. Please wait.

If Youre Up Late Tab

59 views 1 this week
no commentswrite comment
1 2 3 4 5
3 more votes to show rating
add to favorites
launch autoscroll
font size
0
reset
how to read this tab
guitar tuner
Autoscroll
slow
fast
+/-
esc
set tempo
stop
Help us to improve Ultimate-Guitar.com Take our survey!
×
Author
Tuning
D# G# C# F# A# D#
In Fiction - If you're up late(acoustic)
By: Serhiy Serednytski
Tuning: Half-Step Down

Guitar 1

|-0-0-0-0-0-0---|
|--6-6-6-6-6-6--|
|---------------|
|---------------|
|---------------|
|---------------|

Guitar 2

|---1-0-1---1-0-1------1-0-1---1-0-1---|
|--3-------3-----3----3-------3-----3--|
|-2-------2-------2--2-------2-------2-|
|--------------------------------------|
|--------------------------------------|
|--------------------------------------|    2x

Guitar 3

|-3-0-3-0-0-0-1h3-1-0-----0-3-0-3-0-0-0-1h3-1-0---|
|-------------------------------------------------|
|-------------------------------------------------|
|-------------------------------------------------|
|-------------------------------------------------|
|-------------------------------------------------|

Guitar 4

Chords   Dm  Bb  F  C



Intro: Guitar 1, Guitar 2

Verse 1: Guitar 3, Guitar 4

  Dm      Bb
I have so many dreams
     F         C
That I should read up about
 Dm              Bb      F           C
   But would the words I read change me?
         Dm      Bb                F             C
'Cause I bet the story says that I should ask for a sign
Dm             Bb       F      C
  And I should get this off my chest,
I've never walked so far in the pouring rain..
 I never once even asked you to stay,
 And I owe, to you..
 F                     C          Bb
 Some of my best spent days...

Chorus
Dm       Bb                         F
   So if you were me what would you do?
C
   Is the risk too great?
Dm      Bb                           F       C
   If I lock this up I'm risking you too..
Dm          Bb                     F   
   'Cause I don't wanna wish on my past..
C
    So it you're up late,
Dm            Bb
 There's some things,
                F      C
 I wanna say to you...

Verse 2

You have the warmest eyes
 That I've ever looked into..
 As I ignore my fear of heights,
 And I think it's cute,
 How all your friends borrow clothes from you,
 And you still let them even though you're mad..
 And if in fact
 Our actions speak as loud as words
 Then I'm a fool if I don't concus
 and I owe to you
 Some of my best spent days...

Chorus

So if you were me what would you do?
 Is the risk too great?
 If I lock this up I'm risking you too..
 'Cause I don't wanna wish on my past..
 So it you're up late,
 There's some things,
 I wanna say to you...

Bridge

|-0h1-0h1-0h1-0h1-0h1--|
|-3---3---3---3---3----|
|-2---2---2---2---2----|
|-0---0---0---0---0----|
|----------------------|
|----------------------|

Bb         F
   This is something,
             C      Dm
Something so unforeseen
Bb              F 
   But you have changed me..
                C      Dm   Dm F Bb
Changed me in how I feel..
      F
Tread easy..
              C           Dm 
It's not like this has to change,
Bb      
   I don't need this,
F                  C         Dm
   It's fine if it stays the same..
Bb
But tonight...

Chorus

enjoy!
Suggest correction
Give kudos to tab author, rate the tab!
1 2 3 4 5
comments
print report bad tab
guest
You may want to rate the tab now too:
select rating
Wanna post a correction for this tab? Suggest correction