Oops, an error
Loading. Please wait.

Acoustic Medley Tab

version 1
version 1
122,779 views 90 this week
16 commentsread comments
1 2 3 4 5
x 26
add to favorites
launch autoscroll
font size
0
reset
how to read this tab
guitar tuner
Autoscroll
slow
fast
+/-
esc
set tempo
stop
Help us to improve Ultimate-Guitar.com Take our survey!
×
Tuning
D# G# C# F# A# D#
IN FLAMES - ACOUSTIC MEDLEY
                      From the EP BLACK ASH INHERITANCE
                        Copyright 1997 Nuclear Blast  

 

Tune to Eb....or DIE!!!!  (Eb, Ab, Db, Gb, Bb, Eb)

  Riff A
D#|-----------------------------------5--------------------------|
A#|---------------------------------------8~--6---8---6---5------|
F#|:-5-----5-----7/9-5-----5-----7/9--------------------------7\:|
C#|:---7-7---7-7-------7-7---7-7--------------------------------:|
G#|--------------------------------------------------------------|
D#|--------------------------------------------------------------|
|
D#|--------------------------------------------------------------|
A#|-----------------------------------6---5~------5--------------|
F#|:/5-----5-----7/9-5-----5-----7/9----------7-------7~--5---4-:|
C#|:---7-7---7-7-------7-7---7-7--------------------------------:|
G#|--------------------------------------------------------------|
D#|--------------------------------------------------------------|


  Riff B
D#|------------------------------------------hp------------|
A#|--5--------56--5-------------5---6-/8-6--565-------5-8~-|
F#|------7---7------7-5--5--5-7---5-------------7-5--------|
C#|-------------------------------------------------7------|
G#|--------------------------------------------------------|
D#|--------------------------------------------------------|
|
D#|------------------------------------------hp------------|
A#|-----------------------------5---6-/8-6--565-------5-7~-|
F#|-\5---4~--457--5-4---------7---5-------------7-5--------|
C#|-------------------7-----7-----------------------7------|
G#|--------------------------------------------------------|
D#|--------------------------------------------------------|


D#|------------------------------------------hp------------|
A#|--5--------56--5-------------5---6-/8-6--565-------5----|
F#|------7---7------7-5--5--5-7---5-------------7-5-----7--|
C#|-------------------------------------------------7------|
G#|--------------------------------------------------------|
D#|--------------------------------------------------------|
|
D#|------------------------------------------hp------------|
A#|-----------------------------5---6-/8-6--565-------5-7~-|
F#|--5---4~--457--5-4---------7---5-------------7-5--------|
C#|-------------------7--7--7-----------------------7------|
G#|--------------------------------------------------------|
D#|--------------------------------------------------------|

Repeat Riff A

  Riff C
D#|---------------------------------------------|
A#|---------------------------------------------|
F#|:--------------------------------------------|
C#|:--------------------------------------------|
G#|--0---0---0---0---0---0---0---0--------------|
D#|----5---5---5---5---5---5---5---5------------|
|
D#|----------*----------------------------------|
A#|--1---5---3\--0-------1---0---3--------------|
F#|:-2---5---4---0---2---2---0---4--------------|
C#|:-----------------3--------------------------|
G#|----0---0---0---0---0---0---0---0------------|
D#|---------------------------------------------|
  *slide 1st time only...not on repeat


D#|---------------------------------------------|
A#|---------------------------------------------|
F#|--------------------------------------------:|
C#|--------------------------------------------:|
G#|--0---0---0---0---0---0---0---0--------------|
D#|----5---5---5---5---5---5---5----------------|
|
D#|---------------------------------------------|
A#|--1---5---3---0-------1---0------------------|
F#|--2---5---4---0---2---2---0---2-------------:|
C#|------------------3-----------3-------------:|
G#|----0---0---0---0---0---0---0----------------|
D#|---------------------------------------------|


  Riff D
D#|-------------------------------------------------------------------------|
A#|------------------------------~------------------------------------------|
F#|--------------------------4---2------------h-----------------------------|
C#|----2---4-4/5-5~---2---5-----------2---0--0-2--2----2--4--5--5--4--2--4--|
G#|-------------------------------------------------------------------------|
D#|--0---0----------0---0-----------0---0-----------------------------------|     
|
D#|-------------------------------------------------------------------------|
A#|----------------------------------------------------------------hp-------|
F#|-------------------------------------------h-----------2--4--4-242----2--|
C#|----2--------------2---2--5-4-4~---2---4--4-5--5---/5--------------5-----|
G#|--------5-5/7-7~---------------------------------------------------------|
D#|--0---0----------0---0-----------0---0-----------------------------------|


D#|-------------------------------------------------------------------------|
A#|------------------------------~------------------------------------------|
F#|--------------------------4---2------------h-----------------------------|
C#|----2---4---5-5~---2---5-----------2---0--0-2--2----2--4--5--5--4--2--4--|
G#|-------------------------------------------------------------------------|
D#|--0---0----------0---0-----------0---0-----------------------------------|                    
|
D#|-------------------------------------------------------------------------|
A#|----------------------------------------------------------------hp-------|
F#|-------------------------------------------h-----------2--4--4-242----2--|
C#|----2--------------2---2--5-4-4----2---4--4-5--5---/5--------------5-----|
G#|--------5-5/7-7~---------------------------------------------------------|
D#|--0---0----------0---0-----------0---0-----------------------------------|

                                  
Repeat Riff C

  Riff E
D#|----------------------------------------------------------------|
A#|--------7\---5-/8-7~-5----hP----------------h-------------------|
F#|-----------------------7-454-5----------7--7-9-----7------------|
C#|------9------------------------7\5-5~-----------10---9-10-7-----|
G#|----7-------------------------------------------------------10--|
D#|--0-------------------------------------------------------------|
|
D#|---------------/7-5~--------------------------------------------|
A#|--------7\---5-------8-7-5------------------h-------------------|
F#|-----------------------------7-5\4-4~---4--4-5-----4------------|
C#|------9-----------------------------------------7----5--7-4-----|
G#|----7--------------------------------------------------------5--|
D#|--0-------------------------------------------------------------|


D#|-------------------------7-5~--7-5\3-3~----------------------------|
A#|--------7\---5-/8--7~--------------------------h-------------------|
F#|-------------------------------------------7--7-9-----7------------|
C#|------9-------------------------------------------10----9-10--7----|
G#|----7-----------------------------------------------------------10-|
D#|--0----------------------------------------------------------------|
|
D#|---------------5-7-5~---10-8~-10-8\7-7~-\--------------------------|
A#|--------7\---5---------------------------------h-------------------|
F#|-------------------------------------------4--4-5-----4------------|
C#|------9--------------------------------------------7----5--7-4-----|
G#|----7-----------------------------------------------------------5--|
D#|--0----------------------------------------------------------------|

  Riff F
D#|----------------------h--------------------------------|
A#|--8--7---------------8-7-------------------------------|
F#|--------7---h-------------7-...etc...I lost interest---|
C#|-----------7-9-10------------------------here----------|
G#|-------------------------------------------------------|
D#|-------------------------------------------------------|
|
D#|----------------------h--------------------------------|
A#|--8--7------h---5----8-7-------------------------------|
F#|--------7--5-7------------7-...etc---------------------|
C#|-------------------------------------------------------|
G#|-------------------------------------------------------|
D#|-------------------------------------------------------|

Repeat Riff D

  Riff G
D#|----------0--------0-------|
A#|--------0---0------0-------|
F#|--------------0----0-------|
C#|------2---------2--2-------|
G#|----2--------------2-------|
D#|--0----------------0-------|
|
D#|-------------------0-------|
A#|----------0--------0-------|
F#|--------0---0------0-------|
C#|------2-------2----2-------|
G#|----2-----------2--2-------|
D#|--0----------------0-------|

  I guessed this last part without listening to CD



************************************

.  - palm mute                          /  - slide up to  
\  - slide down to                      ~  - vibrato 
"  - tremelo picking                    () - ghost note
p  - pull off                           h  - hammer-on

************************************
Suggest correction
comments
print report bad tab
16 comments total. Showing first comments. show 1 bad comment
0 reply
Murk 10 Dec 06, 2005 10:38 PM

damnit people get the ****in tunings right. its not ****in d# in the first place its ****in drop b.Drop a# if ur playing things off of reroute or soundtrack.

+1 reply
JeankeVG 212 Jan 30, 2006 11:14 AM

haha these comments are too funny :d difficult to guess what's behind the *'s, but you can manage that I think :P let's go a bit possitive too. The tab is accurate as far as I've played it along with the song, not that bad! Good job, but give a little bit more attention when you say something about the tunings next time, you see they don't like it ;) cheers!

guest
You may want to rate the tab now too:
select rating
Wanna post a correction for this tab? Suggest correction