Oops, an error
Loading. Please wait.

Artifacts Of The Black Rain Tab

version 1
version 1

Solo

Whole song

Interactive

5,167 views 3 this week
no commentswrite comment
1 2 3 4 5
please rate
add to favorites
launch autoscroll
font size
0
reset
how to read this tab
guitar tuner
Tab Pro tools
  • play this tab
  • loop segment
  • change instrument
  • show fretboard
  • metronome
Autoscroll
slow
fast
+/-
esc
set tempo
stop
 Artifacts of the Black Rain
       by In Flames
  Album: The Jester Race

Tabelature by: Yalaz Ozkanli

\  Slide Down
/  Slide Up
h  Hammer on
p  Pull off
PM Palm Muting
[-]xK Repeat the part in brackets K times

 [----------------------------------------------------------]x2
|Guitar 1 (Riff I1)
| PM........................................................
|------------------------------------------------------------
|-1-----------4-6-1-----1-----4-6-7----6----4-4--66-44-22-44-
|-2-----2-----5/7-2-----2-----5/7-8----7----5-5--77-55-33-55-
|-2-222-2-222-5/7-2-222-2-222-5/7-8-88-7-77-5-5--77-55-33-55-
|------------------------------------------------------------
|------------------------------------------------------------
|                          
|Guitar 2 (Riff II1)
| PM..........................................................
|--------------------------------------------------------------
|--------------------------------------------------------------
|-5-555-5-555-7h9-5-555-5-555-7h9-10-1010-9-99-7-7-99-77-55-77-
|--------------------------------------------------------------
|--------------------------------------------------------------
|--------------------------------------------------------------
|These Riffs end together


 [---------------------------------------------------------]x2
|Guitar 1 (Riff I2)
| PM...........................  (let ring)
|------------------------------------------------
|------------------------------------------------
|------------------------------------------------
|-2---2------5---5-5-7---7----------5-----5---5--
|-2---2------5---5-5-7---7--------5-----5--------
|-0-0-0-0000-3-3-3-3-5-5-5-5555-3-----3-----3----
|                                  
|Guitar 2 (Riff II2)
|----------------------------------------------------------
|----------------------------------------------------------
|---------------------9-9---7--------------10p9-7----7-9---
|-10p9-7-------7h9-10---------10p9----------------10-------
|--------7-7-----------------------10-10-------------------
|----------------------------------------------------------
|These Riffs end together


 [-------------------------------------------------]x2
|Guitar I (Riff I2)
|
|Guitar II (Riff II2A)
| PM..............................................
|---------------------------------------------------
|---------------------------------------------------
|---------------------------------------------------
|---------------------------------------------------
|-2----2------5----5------7----7------5\4--2---4/5--
|-0-00-0-0000-3-33-3-3333-5-55-5-5555-3\2-00-0-2/3--


 [-----------------------------------------------]x2
|Guitar 1 (Riff I3)
|-------------------------------------------------
|-------------------------------------------------
|-------------------------------------------------
|-2----5----9-----7----4-----5----7----9----------
|-2----5----9-----7----4-----5----7----9----------
|-0----3----7-----5----2-----3----5----7----------
|
|Guitar 2 (Riff II3)
|-------------------------------------------------
|-------------------------------------------------
|----------------------------9-7-----------9-7----
|-9----7---10p9-7-----10p9-7-----10p9-10p9--------
|-----------------7-------------------------------
|-------------------------------------------------

 [-------------------------]x2
|Guitar 1 (Repeat Riff I2)
|Guitar 2 (Repeat Riff II2A)

 [------------------------]x2
|Guitar 1 (Repeat Riff I3)
|Guitar 2 (Repeat Riff II3)

 [------------------------]x2
|Guitar 1 (Repeat Riff I1)
|Guitar 2 (Repeat Riff II1)

 [-------------------------]x2
|Guitar 1 (Repeat Riff I2)
|Guitar 2 (Repeat Riff II2A)

 [------------------------]x2
|Guitar 1 (Repeat Riff I3)
|Guitar 2 (Repeat Riff II3)


|Guitar 1 (Riff I4)
| PM let ring..........................
|---------------------------------------
|---------------------------------------
|-1--1----------------------------------
|-2--2----------------------------------
|-2--2----------------------------------
|-0--0----------------------------------
|
|Guitar 2 (Riff II4)
|  PM        PM         PM      PM
|---------------------------------------
|---------------------------------------
|-9---10-10--9---9-9--7---7-7--5---5-5--
|-7-7--7--7--7-7-7-7--5-5-5-5--3-3-3-3--
|---------------------------------------
|---------------------------------------


|Guitar 1 (Riff I4 Continued)
| PM (very short)
|----------------------------------------------
|----------------------------------------------
|-1--------------------------------------------
|-2--------------------------------------------
|-2--------------------------------------------
|-0--------------------------------------------
|
|Guitar 2 (Riff II4)
|  PM        PM        PM     let ring....... 
|----------------------------------------------
|----------------------------------------------
|-9---10-10--9---7-7--5---5-5---5-----5-----5--
|-7-7--7--7--7-7-5-5--3-3-3-3-----5-----5------
|-----------------------------3-----3-----3----
|----------------------------------------------


|Guitar 1 & 2 (Riff I-II4)
| PM..........
|--------------
|--------------
|-22222222-4-4-
|-33333333-5-5-
|-33333333-5-5-
|-11111111-3-3-

RYTHM FOR SOLO (I WILL TRANSCRIBE THE SOLO SOON I FIGURED OUT MOST OF IT)

A small pause and there we go again...

 [---------------------------------]x2
|Guitar I (Riff I5)
|PM.................................
|-----------------------------------
|-----------------------------------
|-9--9--9-9--9--9-------------------
|-9--9--9-9--9--9--9-------9--------
|-7777777777777777-9-------9--------
|------------------7777777777777777-

 [--------------------]x3
|Guitar I (Riff 5 Continued)
|
|----------------------
|----------------------
|-10---8----1----8-----
|-11---7----2----9-----
|-11---7----2----9-----
|-9----5----0----7-----

|Guitar I (Riff 5 Continued)
| PM..........
|---------------
|---------------
|---------------
|-77777777-9-9--
|-77777777-9-9--
|-55555555-7-7--

Another small pause... and there we go, yet again...

 [------------------------]x2
|Guitar 1 (Repeat Riff I2)
|Guitar 2 (Repeat Riff II2)

 [-------------------------]x2
|Guitar 1 (Repeat Riff I2)
|Guitar 2 (Repeat Riff II2A)

 [------------------------]x2
|Guitar 1 (Repeat Riff I1)
|Guitar 2 (Repeat Riff II1)

Voila, C'est tout!
It's over folks... enjoy it...
I think this shuld be next to perfect, but email me for anything wrong
Yalaz Ozkanli : ozkanli@ibm.net


/ The following is the author's own interpretation of the song, to be used -
/ for studying or private use only, removal of any part of this ten line   -
/ header is illegal!!!  Removal of the transcribers name or anything       -
/ relevant to the transcriber is also illegal, as so is the removal of the -
/ place inwhich the tab was downloaded. Publishing as well as printing of  -
/ the tab is illegal without permission of the transcriber and copyright   -
/ owner of the song. Failure to apply to these laws result will in legal   -
/ action from the appropriate parties.                                     -


join the death/black tab mailing list my emailing 

			  ARTIFACTS OF THE BLACK RAIN
			       	  by In Flames
		          from "The Jester Race" album

		         Transcribed by Tuomas Jäppinen
			   E-mail: tuojappi@jypoly.fi

--------------------------------------------------------------------------------
Tune down 2 whole step to C
NOTE:	On the lead harmony parts, only the root notes are transcribed

Intro
Riff A								    (end Riff A)
Gtr 1	
   pm...  pm... 	 pm...  pm...          pm...  pm...  pm................
|------------------------------------------------------------------------------|
|------------------------------------------------------------------------------|
|------------------------------------------------------------------------------|
|2------2------4---5---2------2------4---5---7------5------4-------------------|
|0--00000--00002---3---0--00000--00002---3---5--55553--33332-223333222200002222|
|------------------------------------------------------------------------------|
|
|Gtr 2
| pm...  pm...          pm...  pm...        pm......  pm...  pm................
|------------------------------------------------------------------------------|
|------------------------------------------------------------------------------|
|5-55555--55557---9---5--55555--55557---9-10-101010109-99997-779999777755557777|
|------------------------------------------------------------------------------|
|------------------------------------------------------------------------------|
|------------------------------------------------------------------------------|

Riff B							        (end Riff B)
Gtr 1
     pm.    pm. pm.    pm.    pm. pm.    pm.    pm. pm.let ring............
|--------------------------------------------------------------------------|
|--------------------------------------------------------------------------|
|-------------------------------------------------------12-----12-------12-|
|2------2------2---5------5------5---7------7------7------10------10-------|
|0----000----000-003----333----333-335----555----555-558-----8-------8-----|
|--------------------------------------------------------------------------|
|
|Gtr 2
|--------------------------------------------------------------------------|
|--------------------------------------------------------------------------|
|-------------------------12-----------------------------------------------|
|10-9-7------------9-10-12-----------151412------------15-14-12-10--12-10--|
|-------7-----------------------------------12-----------------------------|
|--------------------------------------------------------------------------|

Verse (repeat the Gtr 1 part of Riff B 2 times)

Riff C			                        		(end Riff C)
Gtr 1
|--------------------------------------------------------------------------|
|--------------------------------------------------------------------------|
|--------------------------------------------------------------------------|
|-2-----------------5------------------------------------------------------|
|-0----5------------3----7-----------7----5--------------3----5------------|
|------3------------3----5-----------5----3--------------1----3------------|
|
|Gtr 2						  h p     h
|--------------------------------------------------------------------------|
|--------------------------------------------------------------------------|
|------------------------------------7--9-12--10-910-9-------9-------------|
|-10--9----------10-12109-------9-10--10--------------12-1012-12-----------|
|------------------------12------------------------------------------------|
|--------------------------------------------------------------------------|

Verse II (Repeat the rhythm part of Riff B twice)
Repeat Riff C twice
Verse III (Repeat the rhythm part of Riff B twice)
Repeat Riff C twice

Bridge
Gtr 1 strikes the A5 chord
Gtr 2   pm.     pm.   pm.       pm.     pm.  pm.       pm.     pm.  pm.  
|----------------------------------------------------------------------|
|----------------------------------------------------------------------|
|9----9----9-------9-----9----9----10------9----9----9----7-------7----|
|7----7--777-----777---777----7--777-----777--777----7--555-----555--55|
|----------------------------------------------------------------------|
|----------------------------------------------------------------------|

			     Gtr 1strikes the A5 chord short
Gtr 2	pm.     pm.   pm.        pm.    pm.  pm.       pm.    pm.   pm. 
|------------------------|---------------------------------------------|
|------------------------|---------------------------------------------|
|7----7----5-------5-----|9----9----10-----9----9----9----9------9-----|
|5----5--333-----333---33|7----7--777----777--777----7--777----777---77|
|------------------------|---------------------------------------------|
|------------------------|---------------------------------------------|
				        pm....................   (short)
Gtr 2	pm.    pm.   pm.letring........(both gtrs.)
|-------------------------------------------------------------------------|
|-------------------------8-----8-----8-----------------------------------|
|7----7----5------5---------5-----5---------------------------------------|
|5----5--333----333---333-----3-----3---3--3--3--3--3--3--3--3--5--5------|
|---------------------------------------3--3--3--3--3--3--3--3--5--5------|
|---------------------------------------1--1--1--1--1--1--1--1--3--3------|

Lead section A (HAVEN´T FIGURED OUT THE LEAD, PLEASE E-MAIL FOR HELP!!!!!!)
Rhythm part (Gtr 1)(play twice)
   pm...  pm... pm.  pm...  pm... pm.  pm................  pm.................
|-----------------------------------------------------------------------------|
|-----------------------------------------------------------------------------|
|9------9------9---9------9------9--------------------------------------------|
|9------9------9---9------9------9---9-------------------9--------------------|
|7--77777--77777-777--77777--77777-779-------------------9--------------------|
|------------------------------------7--777--777--777--777--777--777--777--77-|

Lead section B
Gtr 1 plays chords
 E5(VII)      C5		  G5	      D5
Gtr 2 
pm throughout
|------------------------------------------------------------------|
|------------------------------------------------------------------|
|------------------------------------------------------------------|
|-1212141414141212141414141212141412121414141417171717161614141212-|
|------------------------------------------------------------------|
|------------------------------------------------------------------|

Gtr 1
 E5(VII)      C5	          G5	      D5
Gtr 2					     (upper harmony part indicated)
|------------------------------------------------------------------|
|------------------------------------------------------------------|
|---------------------------------------------16161616141412121111-|
|-12121414141412121414141412121414121214141414---------------------|
|------------------------------------------------------------------|
|------------------------------------------------------------------|




Gtr 1
 E5(VII)      C5	      G5	      D5
Gtr 2
|------------------------------------------------------------------|
|------------------------------------------------------------------|
|-1111121212121111121212121111121211111212121216161616141412121111-|
|------------------------------------------------------------------|
|------------------------------------------------------------------|
|------------------------------------------------------------------|

Gtr 1 pm..........................  (short)
|-----------------------------------------------------------------------|
|-----------------------------------------------------------------------|
|-----------------------------------------------------------------------|
|-3---3---3--3--3---3---3--3---5--5--5---5---5--------------------------|
|-3---3---3--3--3---3---3--3---5--5--5---5---5--------------------------|
|-1---1---1--1--1---1---1--1---3--3--3---3---3--------------------------|
|							h p
|Gtr 2					      (release pm)   
|-----------------------------------------------------------------------|
|-----------------------------------------------------------------------|
|-1111121212121111121212121111121211111212121216---16-141614-12---11----|
|-----------------------------------------------------------------------|
|-----------------------------------------------------------------------|
|-----------------------------------------------------------------------|

Then repeat Riff B twice
Repeat the rhythm part of Riff B twice
Repeat Riff A twice (THE END)

That should be somewhat correct, but if you find any mistakes or anything 
please e-mail for corrections and comments : tuojappi@jypoly.fi
comments
We did not receive enough feedback on this tab! Please rate:
print report bad tab
1 2 3 4 5
I want to post or [tab]
guest
You may want to rate the tab now too:
select rating
Please do not post tabs as comments. Select "correction" instead!