Oops, an error
Loading. Please wait.

Biosphere Tab

version 2
version 2

Whole song

Interactive

6,161 views 1 this week
2 commentsread comments
1 2 3 4 5
excellent!
x 3
add to favorites
launch autoscroll
font size
0
reset
how to read this tab
guitar tuner
Autoscroll
slow
fast
+/-
esc
set tempo
stop
Help us to improve Ultimate-Guitar.com Take our survey!
×
Author
.  - palm mute                  /  - slide up to         
\  - slide down to              ~  - vibrato             
h  - hammer on                  b  - bend 
p  - pull off                        Suffixes for bend    
t  - tap with finger                     f - full bend    h - half bend
*  - see comment                         r - release      t - tap bend
spm- slight palm mute                    ~ - vibrato bend
"  - tremelo note until next note 

Tuning: D(drop every string down 1 step)

 Riff A.1
|------------------------------------------------------------------|
|----7-7--7-8-10-8---7---------------------------------------------|
|------------------9------6-7-6h7p6----6--7--6---------------------| GTR I
|-9---------------------9-----------9-----------9--(9)--7----------|
|------------------------------------------------------------------|
|------------------------------------------------------------------|
|
|------------------------------------------------------------------|
|------------------------------------------------------------------|
|-4-4-----4-4------------------------------------------------------| GTR II
|-4-4-----4-4---------------5-5-5---7-7-7---5-5-5-5----------------|
|-2-2-----2-2---------------5-5-5---7-7-7---5-5-5-5----------------|
|---------------------------3-3-3---5-5-5---3-3-3-3----------------|

 continuation of Riff A.1
|------------------------------------------------------------------|
|----7-7--7-8-10-8---7---------------------------------------------|
|------------------9------6-7-6h7p6----6--7--6---------------------| GTR I
|-9---------------------9-----------9-----------9--(9)--7----------|
|------------------------------------------------------------------|
|------------------------------------------------------------------|
|
|------------------------------------------------------------------|
|------------------------------------------------------------------|
|-4-4-----4-4-------------------------------4-4-4-4----------------| GTR II
|-4-4-----4-4---------------5-5-5---7-7-7---4-4-4-4----------------|
|-2-2-----2-2---------------5-5-5---7-7-7---2-2-2-2----------------|
|---------------------------3-3-3---5-5-5--------------------------|

 Riff B
|------------------------------------------------------------------|
|----7-7---7-8-10-8---7-----5-7-5h7p5---5--7--5--------------------|
|-7-----------------9-----7-----------7---------7--(7)-6-----------|  GTR I
|------------------------------------------------------------------|
|------------------------------------------------------------------|
|------------------------------------------------------------------|
|
|------------------------------------------------------------------|
|--------------7---------------------------------------------------|
|----7-7---7-9---9-6-7------6--7--6-----6--7--6--------------------|  GTR II
|-9----------------------9------------9---------9--(9)-7-----------|
|------------------------------------------------------------------|
|------------------------------------------------------------------|

Play Riff B a total of two times

 Riff C.1
|------------------------------------------------------------------|
|------------------------------------------------------------------|
|-4-X-X-6-----7-X-X-7----------------------------------------------| GTR I
|-4-X-X-6-----7-X-X-7------5-X-X-7-X-X-5---------------------------|
|-2-X-X-4-----5-X-X-5------5-X-X-7-X-X-5---------------------------|
|--------------------------3-X-X-5-X-X-3---------------------------|
|
|------------------------------------------------------------------|
|--------------7---------------------------------------------------|
|----7-7---7-9---9-6-7----6-7-6---6--7-6---------------------------| GTR II
|-9---------------------9-------9---------9--(9)-7-----------------|
|------------------------------------------------------------------|
|------------------------------------------------------------------|

continuation of Riff C.1
|------------------------------------------------------------------|
|------------------------------------------------------------------|
|-4------6-X-X-7-------------------------4-------------------------| GTR I
|-4------6-X-X-7-------X-X-5-----7-X-X---4-------------------------|
|-2------4-X-X-5-------X-X-5-----7-X-X---2-------------------------|
|----------------------X-X-3-----5-X-X-----------------------------|
|
|------------------------------------------------------------------|
|--------------7---------------------------------------------------|
|----7-7---7-9---9-6-7----6-7-6---6--7-6---------------------------|  GTR II
|-9---------------------9-------9---------9--(9)-7-----------------|
|------------------------------------------------------------------|
|------------------------------------------------------------------|

 Riff D
|---------------7---9-7----------------------------7---9-7------------|
|-7-9-10-7-9-10---7-----10-9-10-7------9-10-7-9-10---7-----10-9-7-----|
|---------------------------------9/11----------------------------10--| GTR I
|---------------------------------------------------------------------|
|---------------------------------------------------------------------|
|---------------------------------------------------------------------|
|
|---------------------------------------------------------------------|
|---------------------------------------------------------------------|
|-11-11-11---9-9-9-----------7-7-7--11-11-11--9-9-9-----------6-6-6---| GTR 2
|-11-11-11---9-9-9---7-7-7---7-7-7--11-11-11--9-9-9---7-7-7---6-6-6---|
|-9--9--9----7-7-7---7-7-7---5-5-5--9--9--9---7-7-7---7-7-7---4-4-4---|
|--------------------5-5-5----------------------------5-5-5-----------|

Play Riff D twice

 Riff A.2
|------------------------------------------------------------------|
|----7-7--7-8-10-8---7---------------------------------------------|
|------------------9------6-7-6h7p6----6--7--6---------------------| GTR I
|-9---------------------9-----------9-----------9--(9)--7----------|
|------------------------------------------------------------------|
|------------------------------------------------------------------|
|
|------------------------------------------------------------------|
|------------------------------------------------------------------|
|-4-4-----4-4------------------------------------------------------| GTR II
|-4-4-----4-4---------------5-5-5---7-7-7---5-5-5-5----------------|
|-2-2-----2-2---------------5-5-5---7-7-7---5-5-5-5----------------|
|---------------------------3-3-3---5-5-5---3-3-3-3----------------|

 continuation of Riff A.2
|---------------------------------------------------|
|----7-7--7-8-10-8---7------------------------------|
|------------------9------6-7-6h7p6----6--7--6------| GTR I
|-9---------------------9-----------9-----------9---|
|---------------------------------------------------|
|---------------------------------------------------|
|
|---------------------------------------------------|
|---------------------------------------------------|
|-4-4-----4-4-------------------------------4-4-----| GTR II
|-4-4-----4-4---------------5-5-5---7-7-7---4-4-----|
|-2-2-----2-2---------------5-5-5---7-7-7---2-2-----|
|---------------------------3-3-3---5-5-5-----------|

Riff E
|---------------------------------------------------|
|---------------------------------------------------|
|-4---------6--------7------------------------------| GTR I
|-4---------6--------7---------5---7----------------|
|-2---------4--------5---------5---7----------------|
|------------------------------3---5----------------|
|
|---------------------------------------------------|
|---------------------------------------------------|
|---------------------------------------------------| GTR II
|-----------------2"----2"-4"-5"-4"-2"--------------|
|-2"-4"-5"-4"-5"-----5"-----------------------------|
|---------------------------------------------------|

 continuation of Riff E
|----------------------------------------------------|
|----------------------------------------------------|
|-4----4---4---6----6---6---7----7---7---------------| GTR I
|-4----4---4---6----6---6---7----7---7---5----57-----|
|-2222222222222444444444444455555555555555----57-----|
|----------------------------------------33333355555-|
|  .... ... ... .... ... ... .... ... ... ....  .... 
|
|----------------------------------------------------|
|----------------------------------------------------|
|----------------------------------------------------| GTR II
|-----------------2"----2"-4"-5"-4"-2"---------------|
|-2"-4"-5"-4"-5"-----5"------------------------------|
|----------------------------------------------------|

Riff F
|----------------------------------------------------|
|----------------------------------------------------|
|----------------------------------------------------| GTR I
|-3"-"-"-"-2-3"-5"-3"----3"-3"-"-"-"-2-3"-5"-3"------|
|---------------------3"------------------------3"---|
|----------------------------------------------------|
|
|----------------------------------------------------|
|----------------------------------------------------|
|---------------3"----0"------------------3"----0"---| GTR II
|-0"-"-"-"---0"-5"-0"-2"-0"-0"-"-"-"---0"-5"-0"-2"---|
|----------3-------------------------3---------------|
|----------------------------------------------------|

Play Riff F twice

Riff G
|-------------------------------|
|-------------------------------|
|-------------------------------| GTR I
|-----------4-----555-----222---|
|-2-2-2-2-2---2-2-----2-2-------|
|-------------------------------|
|
|-------------------------------|
|-------------------------------|
|-------------------------------| GTR II
|-----------4-----555-----222---|
|-2"----------2"------2"--------|
|-------------------------------|

Play Riff G twice
Play Riff F twice
Play Riff G twice

Riff H.1
|------------------------------------------------------------------|
|------------------------------------------------------------------|
|-14----14-X-13----13-X-16------16-\---11---12----11----12---------| GTR I
|-14----14-X-13----13-X-16------16--\--11---12----11----12---------|
|-12----12-X-11----11-X-14------14---\-9----10----9-----10---------|
|------------------------------------------------------------------|
|                      
|  guitar II                                            repeat twice
|---------------------------------------------------||---------------------||
|---------------------------------------------------||---------------------||
|---6---6---6---6---4---4---4---4---4---4---4---4---||*-------------------*||
|-7---7---7---7---6---6---6---6---5---5---5---5---4-||*-7-4-7-5-5-5-7-5-4-*||
|---------------------------------------------------||---------------------||
|---------------------------------------------------||---------------------||

continuation of Riff H.1(guitar one)                    repeat twice
|---------------------------------------------------||---------------------||
|---------------------------------------------------||---------------------||
|---6---6---6---6---4---4---4---4---4---4---4---4---||*-------------------*||
|-7---7---7---7---6---6---6---6---5---5---5---5---4-||*-7-4-7-5-5-5-7-5-4-*||
|---------------------------------------------------||---------------------||
|---------------------------------------------------||---------------------||
|
| guitar two                                            repeat twice
|---------------------------------------------------||---------------------||
|---------------------------------------------------||---------------------||
|---6---6---6---6---4---4---4---4---4---4---4---4-6-||*---6---7-7-7-9-7-6-*||
|-7---7---7---7---6---6---6---6---5---5---5---5-----||*-7---7-------------*||
|---------------------------------------------------||---------------------||
|---------------------------------------------------||---------------------||

Riff I
|----------------------------------------------------|
|----------------------------------------------------|
|-------------5---7-----9----------------------------| GTR I
|-4-----------5---7-----9----------------------------|
|-4-----------3---5-----7----------------------------|
|-2--------------------------------------------------|
|
|----------------------------------------------------|
|----------------------------------------------------|
|----------4-6---------------------------------------| GTR II
|-4--4-6-7-----5--5-7-5---5--------------------------|
|-----------------------7----------------------------|
|----------------------------------------------------|

Play Riff I twice

Riff J
|----------------------------------------------------|
|--------2-3/5-3--3-5-3-2-3--------------------------|
|-2--2h4---------------------------------------------| GTR I
|----------------------------------------------------|
|----------------------------------------------------|
|----------------------------------------------------|
|
|----------------------------------------------------|
|----------------------------------------------------|
|----------4-6---------------------------------------| GTR II
|-4--4-6-7-----5--5-7-5---5--------------------------|
|-----------------------7----------------------------|
|----------------------------------------------------|

Play Riff J twice

Riff H.2
|--------------------------------------------------------------------|
|--------------------------------------------------------------------|
|-14----14-X-13----13-X-12------12-X-11-----12----X-11----12---------| GTR I 
|-14----14-X-13----13-X-12------12-X-11-----12----X-11----12---------|
|-12----12-X-11----11-X-10------10-X-9------10----X-9-----10---------|
|--------------------------------------------------------------------|
|                      
|  Guitar II                                            repeat twice
|---------------------------------------------------||---------------------||
|---------------------------------------------------||---------------------||
|---6---6---6---6---4---4---4---4---4---4---4---4---||*-------------------*||
|-7---7---7---7---6---6---6---6---5---5---5---5---4-||*-7-4-7-5-5-5-7-5-4-*||
|---------------------------------------------------||---------------------||
|---------------------------------------------------||---------------------||

continuation of Riff H.2(guitar 1)                      repeat twice
|---------------------------------------------------||---------------------||
|---------------------------------------------------||---------------------||
|---6---6---6---6---4---4---4---4---4---4---4---4---||*-------------------*||
|-7---7---7---7---6---6---6---6---5---5---5---5---4-||*-7-4-7-5-5-5-7-5-4-*||
|---------------------------------------------------||---------------------||
|---------------------------------------------------||---------------------||
|
| guitar 2                                              repeat twice
|---------------------------------------------------||---------------------||
|---------------------------------------------------||---------------------||
|---6---6---6---6---4---4---4---4---4---4---4---4-6-||*---6---7-7-7-9-7-6-*||
|-7---7---7---7---6---6---6---6---5---5---5---5-----||*-7---7-------------*||
|---------------------------------------------------||---------------------||
|---------------------------------------------------||---------------------||

Play Riff I twice
Play Riff J twice

Riff K
|----------------------------------------------------|
|----------------------------------------------------|
|-7"----7"----7"----9"-7"-6"-4"-2"-1"-2"----1"-2"----| GTR I
|----4"----4"----4"----------------------4"----------|
|----------------------------------------------------|
|----------------------------------------------------|
|
|----------------------------------------------------|
|----------------------------------------------------|
|-7"----7"----7"----------6"----6"----6"-------------| GTR II
|----4"----4"----4"-2"-4"----4"----4"----4"-2"-4"----|
|----------------------------------------------------|
|----------------------------------------------------|

Play Riff K twice

Riff L
|-----------------------------------------------------|
|-----------------------------------------------------|
|-5"----5"----5"----7"-5"-4"-2"-----------------------| GTR I
|----2"----2"----2"-------------5"-4"-5"-2"-4"-5"-----|
|-----------------------------------------------------|
|-----------------------------------------------------|
|
|-----------------------------------------------------|
|-----------------------------------------------------|
|-5"----5"----5"----------4"----4"----4"--------------| GTR II
|----2"----2"----2"-0"-2"----2"----2"----2"-0"-2"-----|
|-----------------------------------------------------|
|-----------------------------------------------------|

Play Riff L twice
Play Riff F twice
Play Riff G twice
Play Riff F twice
Play Riff G twice
Play Riff H.2
Play Riff I twice
Play Riff A.1 twice
Play Riff B twice

 Riff C.2
|------------------------------------------------------------------|
|------------------------------------------------------------------|
|-4-----6-----7-X-X-7----------------------------------------------| GTR I
|-4-----6-----7-X-X-7------5-X-X-7-X-X-5---------------------------|
|-2-----4-----5-X-X-5------5-X-X-7-X-X-5---------------------------|
|--------------------------3-X-X-5-X-X-3---------------------------|
|
|------------------------------------------------------------------|
|--------------7---------------------------------------------------|
|----7-7---7-9---9-6-7----6-7-6---6--7-6---------------------------| GTR II
|-9---------------------9-------9---------9--(9)-7-----------------|
|------------------------------------------------------------------|
|------------------------------------------------------------------|

continuation of Riff C.2
|------------------------------------------------------------------|
|------------------------------------------------------------------|
|-4------6----7-X-X-7--------------------4-------------------------| GTR I
|-4------6----7-X-X-7------5-X-X-7-X-X---4-------------------------|
|-2------4----5-X-X-5------5-X-X-7-X-X---2-------------------------|
|--------------------------3-X-X-5-X-X-----------------------------|
|
|------------------------------------------------------------------|
|--------------7---------------------------------------------------|
|----7-7---7-9---9-6-7----6-7-6---6--7-6---------------------------| GTR II
|-9---------------------9-------9---------9--(9)-7-----------------|
|------------------------------------------------------------------|
|------------------------------------------------------------------|

Play Riff D twice
Play Riff A.2 twice
Suggest correction
Give kudos to tab author, rate the tab!
1 2 3 4 5
comments
print report bad tab
2 comments total.
+1 reply
Darkblade24 10 wrote on May 19 2006, 12:08 am

mate u have my utmost thanks and congratulations. u r a legend. very nice work. 5 stars

0 reply
whereami24 10 wrote on April 20 2008, 10:02 pm

beautiful

guest
You may want to rate the tab now too:
select rating
Please do not post tabs as comments. Select "correction" instead!