Oops, an error
Loading. Please wait.

Black And White Tab

version 2
version 2

Whole song

Interactive

1,326 views 3 this week
no commentswrite comment
1 2 3 4 5
please rate
add to favorites
launch autoscroll
font size
0
reset
how to read this tab
guitar tuner
Autoscroll
slow
fast
+/-
esc
set tempo
stop
Help us to improve Ultimate-Guitar.com Take our survey!
×
Author
Difficulty
intermediate
                              IN FLAMES
                           BLACK AND WHITE

            I know that this is'nt 100% correct, but it gives you an 
            idea how to play it.

            . - palm mute
            , - light palm mute
            / - slide 
      
            Tuning - C G D# A# F A#
            
            
 Intro
|------------------------------|
|------------------------------|
|------------------------------|
|------------------------------|
|------------------------10----|
|-3--0-0--3--0-0--3--0-0--8----|
|-3--0-0--3--0-0--3--0-0--8----|x4
  .  . .  .  . .  .  . . 
 Verse
|------------------------------|
|------------------------------|
|------------------------------|
|------------------------------|
|------------------------------|
|------------------------------|

|------------------------------|
|------------------------------|
|----------------------7-------|
|----------------------7-------|
|-3--0-0--3--0-0--3--0-5-------|
|-3--0-0--3--0-0--3--0---------|
  .  . .  .  . .  .  .
|------------------------------|
|------------------------------|
|------------------------------|
|------------------------------|
|------------------------------|
|------------------------------|

 Pre-Chorus
|-------------------------------|
|-------------------------------|
|-------------------------------|
|-2-2-2-2-2-2-13-13-13-13-13-13-|
|-0-0-0-0-0-0-11-11-11-11-11-11-|
|-------------------------------|
  , , , , , , , , , , , , , , ,
|------------------------------------------|
|------------------------------------------|
|------------------------------------------|
|-4-4-4-4-4-4-4-4-4-4-4-4-2-2-2-2-2-2-2-2--|
|-2-2-2-2-2-2-2-2-2-2-2-2-0-0-0-0-0-0-0-0--|
|------------------------------------------|
  , , , , , , , , , , , , , , , , , , , , 
|---------------------------------------------|
|---------------------------------------------|
|---------------------------------------------|
|-2-2-2-2-2-2-2-2-7-7-7-7-7-7-7-7-------------|
|-0-0-0-0-0-0-0-0-5-5-5-5-5-5-5-5-8p7p5-8p7p5-|
|---------------------------------------------|x2
  , , , , , , , , , , , , , , , ,
 Chorus
|-------------------------------------------------|
|-------------------------------------------------|
|-------------------------------------------------|
|-3-3-3-3-3-3-3-3-5-5-5-5-5-5-5-5-7-7-7-7-7-7-7-7-|
|-1-1-1-1-1-1-1-1-3-3-3-3-3-3-3-3-5-5-5-5-5-5-5-5-|
|-------------------------------------------------|

|-----------------|
|-----------------|
|-----------------|
|-2-2-2-2-2-2-2-2-|
|-0-0-0-0-0-0-0-0-|
|-----------------|x3


|-------------------------------------------------|
|-------------------------------------------------|
|-------------------------------------------------|
|-3-3-3-3-3-3-3-3-5-5-5-5-5-5-5-5-7-7-7-7-7-7-7-7-|
|-1-1-1-1-1-1-1-1-3-3-3-3-3-3-3-3-5-5-5-5-5-5-5-5-|
|-------------------------------------------------|

|---------------------------------|
|---------------------------------|
|---------------------------------|
|-7-7-7-7-7-7-7-7-5-5-5-5-5-5-5-5-|
|-5-5-5-5-5-5-5-5-3-3-3-3-3-3-3-3-|
|---------------------------------|

 Pre-Verse
|------------------------------|
|------------------------------|
|------------------------------|
|------------------------------|
|------------------------10----|
|-3--0-0--3--0-0--3--0-0--8----|
|-3--0-0--3--0-0--3--0-0--8----|x4
  .  . .  .  . .  .  . .
 Verse 2

|------------------------------|
|------------------------------|
|------------------------------|
|------------------------------|
|------------------------------|
|------------------------------|

|------------------------------|
|------------------------------|
|----------------------7-------|
|----------------------7-------|
|-3--0-0--3--0-0--3--0-5-------|
|-3--0-0--3--0-0--3--0---------|
  .  . .  .  . .  .  .
|------------------------------|
|------------------------------|
|------------------------------|
|------------------------------|
|------------------------------|
|------------------------------|

 Pre-Chorus

|-------------------------------|
|-------------------------------|
|-------------------------------|
|-2-2-2-2-2-2-13-13-13-13-13-13-|
|-0-0-0-0-0-0-11-11-11-11-11-11-|
|-------------------------------|
  , , , , , , , , , , , , , , ,
|------------------------------------------|
|------------------------------------------|
|------------------------------------------|
|-4-4-4-4-4-4-4-4-4-4-4-4-2-2-2-2-2-2-2-2--|
|-2-2-2-2-2-2-2-2-2-2-2-2-0-0-0-0-0-0-0-0--|
|------------------------------------------|
  , , , , , , , , , , , , , , , , , , , ,
|---------------------------------------------|
|---------------------------------------------|
|---------------------------------------------|
|-2-2-2-2-2-2-2-2-7-7-7-7-7-7-7-7-------------|
|-0-0-0-0-0-0-0-0-5-5-5-5-5-5-5-5-8p7p5-8p7p5-|
|---------------------------------------------|x2
  , , , , , , , , , , , , , , , ,
 Chorus
|-------------------------------------------------|
|-------------------------------------------------|
|-------------------------------------------------|
|-3-3-3-3-3-3-3-3-5-5-5-5-5-5-5-5-7-7-7-7-7-7-7-7-|
|-1-1-1-1-1-1-1-1-3-3-3-3-3-3-3-3-5-5-5-5-5-5-5-5-|
|-------------------------------------------------|

|-----------------|
|-----------------|
|-----------------|
|-2-2-2-2-2-2-2-2-|
|-0-0-0-0-0-0-0-0-|
|-----------------|x3


|-------------------------------------------------|
|-------------------------------------------------|
|-------------------------------------------------|
|-3-3-3-3-3-3-3-3-5-5-5-5-5-5-5-5-7-7-7-7-7-7-7-7-|
|-1-1-1-1-1-1-1-1-3-3-3-3-3-3-3-3-5-5-5-5-5-5-5-5-|
|-------------------------------------------------|

|---------------------------------|
|---------------------------------|
|---------------------------------|
|-7-7-7-7-7-7-7-7-5-5-5-5-5-5-5-5-|
|-5-5-5-5-5-5-5-5-3-3-3-3-3-3-3-3-|
|---------------------------------|

 Bridge
|---------------------------------|
|---------------------------------|
|---------------------------------|
|---0----------0----------0-------|
|-0-0---3-0--0-0---3-0--0-0---3-0-|
|-0-0---3-0--0-0---3-0--0-0---3-0-|
  .     . .  .     . .  .     . .
|---------------|
|---------------|
|---------------|
|---------------|
|-0-------------|
|-0-3p2p0-8p6p0-|x2
  .
|------------------------------------------|
|------------------------------------------|
|------------------------------------------|
|---0----------------------------------3---|
|-3-0--0-0-0-0-0-0-0-0-0-0-0-0-0-0-0-0-3---|
|-3-0--0-0-0-0-0-0-0-0-0-0-0-0-0-0-0-0-3---|x2
  .    . . . . . . . . . . . . . . . .|second time the solo 
                                      |starts here
 Solo
|------------------------------|
|------------------------------|
|-5/9---7-9---10-9--7-7-9------|
|-----------8-------------10---|
|------------------------------|
|------------------------------|

|----------------------------------------|
|-/16---14-16-17-16--14-11---/19--18-----|
|----------------------------------------|
|----------------------------------------|
|----------------------------------------|
|----------------------------------------|

 Bridge
|---------------------------------|
|---------------------------------|
|---------------------------------|
|---0----------0----------0-------|
|-0-0---3-0--0-0---3-0--0-0---3-0-|
|-0-0---3-0--0-0---3-0--0-0---3-0-|
  .     . .  .     . .  .     . .
|---------------|
|---------------|
|---------------|
|---------------|
|-0-------------|
|-0-3p2p0-8p6p0-|x3
  .
|---------------|
|---------------|
|---------------|
|-0-------------|
|-0-3p2p0-8p6p0-|
  .
 Chorus
|-------------------------------------------------|
|-------------------------------------------------|
|-------------------------------------------------|
|-3-3-3-3-3-3-3-3-5-5-5-5-5-5-5-5-7-7-7-7-7-7-7-7-|
|-1-1-1-1-1-1-1-1-3-3-3-3-3-3-3-3-5-5-5-5-5-5-5-5-|
|-------------------------------------------------|

|-----------------|
|-----------------|
|-----------------|
|-2-2-2-2-2-2-2-2-|
|-0-0-0-0-0-0-0-0-|
|-----------------|x3


|-------------------------------------------------|
|-------------------------------------------------|
|-------------------------------------------------|
|-3-3-3-3-3-3-3-3-5-5-5-5-5-5-5-5-7-7-7-7-7-7-7-7-|
|-1-1-1-1-1-1-1-1-3-3-3-3-3-3-3-3-5-5-5-5-5-5-5-5-|
|-------------------------------------------------|

|---------------------------------|
|---------------------------------|
|---------------------------------|
|-7-7-7-7-7-7-7-7-5-5-5-5-5-5-5-5-|
|-5-5-5-5-5-5-5-5-3-3-3-3-3-3-3-3-|
|---------------------------------|

 Outro
|------------------------------|
|------------------------------|
|------------------------------|
|------------------------------|
|------------------------10----|
|-3--0-0--3--0-0--3--0-0--8----|
|-3--0-0--3--0-0--3--0-0--8----|x4
  .  . .  .  . .  .  . .
|-------------------------|
|-------------------------|
|-------------------------|
|-----------------4-4-4-4-|
|-2-2-2-2-2-2-2-2-2-2-2-2-|
|-3-3-3-3-3-3-3-3---------|
  . . . . . . . . . . . .

Suggest correction
Give kudos to tab author, rate the tab!
1 2 3 4 5
comments
print report bad tab
guest
You may want to rate the tab now too:
select rating
Please do not post tabs as comments. Select "correction" instead!