Oops, an error
Loading. Please wait.

Black And White Tab

version 3
version 3

Whole song

Interactive

661 views 1 this week
no commentswrite comment
1 2 3 4 5
2 more votes to show rating
add to favorites
launch autoscroll
font size
0
reset
how to read this tab
guitar tuner
Autoscroll
slow
fast
+/-
esc
set tempo
stop
Help us to improve Ultimate-Guitar.com Take our survey!
×
Author
IN FLAMES- BLACK AND WHITE

Tab by Jezyral
jakeminihan@googlemail.com

I created this tab because i didn't think either of the other Black and White tabs were 
accurate.
Also, this is my first tab. Hope you like it. I'm not gonna put a load of copyright 
on my tab, just
please credit me if you decide to use it anywhere. :-)

This is one of my favorite In Flames songs, because of the beastly muted
chords and the bridge that is impossible not to bang your head to.


Tuning: Drop A#, C# standard with a dropped A#, Drop D down 2 whole steps, whatever you 
to call it

E -> C
B -> G
G -> D#
D -> A#
A -> F
E -> A#

Play order:
Intro x2
Verse
Prechorus x2
Chorus
Intro x2
Verse
Prechorus x2
Chorus
Bridge x2
Mini-solo
Different Bridge
Chorus
Outro


Symbols: \ Slide Down
         . Palm mute
         x Muted note
         + Harmonic
         p Pull-off

Intro
 C|-------------------------------------------------------------------|
 G|-------------------------------------------------------------------|
D#|-------------------------------------------------------------------|
A#|---------------------3------------------------3--------------------|
 F|3-0--0-5-0--0-3-0--0-1---3-0--0-5-0--0-3-0--0-1--------------------|
A#|3-0--0-5-0--0-3-0--0-----3-0--0-5-0--0-3-0--0----------------------|
   . .  . . .  . . .  .     . .  . . .  . . .  .

Verse
 C|-------------------------------------------------------------------|
 G|-------------------------------------------------------------------|
D#|-------------------------------------------------------------------|
A#|------------------7\-----------------------------------------------|
 F|3-0--0-5-0--0-0-0-5\-----------------------------------------------|
A#|3-0--0-5-0--0-0-0--------------------------------------------------|
   . .  . . .  . . .


Prechorus
 C|-------------------------------------------------------------------|
 G|-------------------------------------------------------------------|
D#|-------------------------------------------------------------------|
A#|0-0-0-0-0-0-0-0-0-0-0-2-3-3-0-0-2-2-2-2-2-2-2-2-2-2-2-2-2-2-0-2----|
 F|0-0-0-0-0-0-0-0-0-0-0-0-0-0-0-0-0-0-0-0-0-0-0-0-0-0-0-0-0-0-0-0----|
A#|-------------------------------------------------------------------|
   . . . . . . . . . . . . . . . . . . . . . . . . . . . . . . . .

 C|-------------------------------------------------------------------|
 G|-------------------------------------------------------------------|
D#|-------------------------------------------------------------------|
A#|3-3-3-3-3-3-3-3-3-3-3-3-7-7-7-7-7-7-7-7-7-7-7-7--------------------|
 F|1-1-1-1-1-1-1-1-1-1-1-1-0-0-5-5-5-5-5-5-5-5-5-5-5-8-7-5-8-7-5-0----|
A#|-------------------------------------------------------------------|
   . . . . . . . . . . . . . . . . . . . . . . . .


Chorus
 C|-------------------------------------------------------------------|
 G|-------------------------------------------------------------------|
D#|7-7-7-7-7-7-7-7-5-5-5-5-5-5-5-5-2-2-2-2-2-2-2-2-5-5-5-5-5-5-5-5----|
A#|x-x-x-x-x-x-x-x-x-x-x-x-x-x-x-x-x-x-x-x-x-x-x-x-x-x-x-x-x-x-x-x----|
 F|5-5-5-5-5-5-5-5-3-3-3-3-3-3-3-3-0-0-0-0-0-0-0-0-3-3-3-3-3-3-3-3----|
A#|-------------------------------------------------------------------|

 C|-------------------------------------------------------------------|
 G|-------------------------------------------------------------------|
D#|3-3-3-3-3-3-3-3-5-5-5-5-5-5-5-5-2-2-2-2-2-2-2-2-2-2-2-2-2-2-2-2----|
A#|x-x-x-x-x-x-x-x-x-x-x-x-x-x-x-x-x-x-x-x-x-x-x-x-3-3-3-3-3-3-3-3----|
 F|1-1-1-1-1-1-1-1-3-3-3-3-3-3-3-3-0-0-0-0-0-0-0-0-0-0-0-0-0-0-0-0----|
A#|-------------------------------------------------------------------|

 C|-------------------------------------------------------------------|
 G|-------------------------------------------------------------------|
D#|7-7-7-7-7-7-7-7-5-5-5-5-5-5-5-5-2-2-2-2-2-2-2-2-5-5-5-5-5-5-5-5----|
A#|x-x-x-x-x-x-x-x-x-x-x-x-x-x-x-x-x-x-x-x-x-x-x-x-x-x-x-x-x-x-x-x----|
 F|5-5-5-5-5-5-5-5-3-3-3-3-3-3-3-3-0-0-0-0-0-0-0-0-3-3-3-3-3-3-3-3----|
A#|-------------------------------------------------------------------|

 C|-------------------------------------------------------------------|
 G|-------------------------------------------------------------------|
D#|3-3-3-3-3-3-3-3-5-5-5-5-5-5-5-5-12121212121212121212121212121212---|
A#|x-x-x-x-x-x-x-x-x-x-x-x-x-x-x-x-x-x-x-x-x-x-x-x-x-x-x-x-x-x-x-x----|
 F|1-1-1-1-1-1-1-1-3-3-3-3-3-3-3-3-10101010101010101010101010101010---|
A#|-------------------------------------------------------------------|

 C|---------------------------------------------|
 G|---------------------------------------------|
D#|14-14-14-14-14-14-15-15-15-15-15-15-15-15-15-|
A#|x--x--x--x--x--x--x--x--x--x--x--x--x--x--x--|
 F|11-11-11-11-11-11-12-12-12-12-12-12-12-12-12-|
A#|---------------------------------------------|


Bridge
 C|---------------------------------------------|
 G|---------------------------------------------|
D#|---------------------------------------------|
A#|0---------0---------0------------------------|
 F|0--x-x--x-0--x-x--x-0--x-x-------------------|
A#|0--x-x--x-0--x-x--x-0--x-x-0-0-3-2-0-8-7-0-3-|
      . .  .    . .  .    . .


Mini-solo
 C|-------------------------------------------------------------------|
 G|-------------------------------------------------------------------|
D#|5-7-9~----5-7-10-9-10p9p7-3--5-5~-5+-------------------------------|
A#|-------------------------------------------------------------------|
 F|-------------------------------------------------------------------|
A#|-------------------------------------------------------------------|

 C|---------------------13-12~----------------------------------------|
 G|12-14-17--16--12-7~------------------------------------------------|
D#|-------------------------------------------------------------------|
A#|-------------------------------------------------------------------|
 F|-------------------------------------------------------------------|
A#|-------------------------------------------------------------------|


Different Bridge
 C|---------------------------------------------|
 G|---------------------------------------------|
D#|---------------------------------------------|
A#|2---------2---------2------------------------|
 F|2--x-x--x-2--x-x--x-2--x-x-----------3-2-----|
A#|2--x-x--x-2--x-x--x-2--x-x-2-2-5-4-2-----0-2-|
      . .  .    . .  .    . .

 C|--------------------------------------------------------|
 G|--------------------------------------------------------|
D#|--------------------------------------------------------|
A#|2-2---------2-------------------------------------------|
 F|2-2--x-x--x-2--x-x------------3-2---------------3-2-----|
A#|2-2--x-x--x-2--x-x--2-2-5-4-2-----0-2---2-5-4-2-----0-2-|
        . .  .    . .

Outro
 C|-------------------------------------------------------------------|
 G|-------------------------------------------------------------------|
D#|-------------------------------------------------------------------|
A#|---------------------3------------------------3--------------------|
 F|3-0--0-5-0--0-3-0--0-1---3-0--0-5-0--0-3-0--0-1--------------------|
A#|3-0--0-5-0--0-3-0--0-----3-0--0-5-0--0-3-0--0----------------------|
   . .  . . .  . . .  .     . .  . . .  . . .  .

 C|-------------------------------------------------------------------|
 G|-------------------------------------------------------------------|
D#|-------------------------------------------------------------------|
A#|---------------------3------------------------3--------------------|
 F|3-0--0-5-0--0-3-0--0-1---3-0--0-5-0--0-3-0--0-1--------------------|
A#|3-0--0-5-0--0-3-0--0-----3-0--0-5-0--0-3-0--0----------------------|
   . .  . . .  . . .  .     . .  . . .  . . .  .

 C|-------------------------------------------------------------------|
 G|-------------------------------------------------------------------|
D#|-------------------------------------------------------------------|
A#|----------------------0~-------------------------------------------|
 F|3-3-3-3-3-3-3-3-0-0-0-0~-------------------------------------------|
A#|3-3-3-3-3-3-3-3-0-0-0-0~-------------------------------------------|
   . . . . . . . . . . .
Suggest correction
Give kudos to tab author, rate the tab!
1 2 3 4 5
comments
print report bad tab
guest
You may want to rate the tab now too:
select rating
Wanna post a correction for this tab? Suggest correction